Shooting Blanks - Abbey Normal Chords & Tabs

 

Abbey Normal Chords & Tabs

Shooting Blanks Chords & Tabs

Version: 1 Type: Tab 0 ratings
1 star 2 stars 3 stars 4 stars 5 stars
comments

Abbey Normal Tab

   
-------------------------------------------------------------------------------
			     ABBEY NORMAL - Shooting Blanks
-------------------------------------------------------------------------------

Album: The Sticky ALbum
Tabbed by: Matt Hoffman
Email: Hoffman@shootingblanks.net

Tuning: Standard - E A D G B E


VERSE:
   A A          E           D           D
e|----------------------------------------------------------|
B|----------------------------------------------------------|
G|--------------------------7-----------7-7-7-7-7-6-4-6-----|
D|-7-7----------2-----------7-------------------------------|
A|-7-7----------2-----------5-------------------------------|
E|-5-5----------0-------------------------------------------|

CHORUS:
 A           D           F#           D     E

MINI-SOLO:
   A                  D                  F#               D           E
e|---------------------------------------------------------------------------------|
B|---------------------------------------------------------------------------------|
G|-6-6-66-6-6-6-4-6-6-7-7-77-7-7-6-------9-9-99-9-9-7-6-4----7----7---9-9--9-------|
D|---------------------------------9-7-7-------------------------------------------|
A|---------------------------------------------------------------------------------|
E|---------------------------------------------------------------------------------|

BREAK:
   B           E           A       G#      F#
e|-7~~~---------0~~~-------5-----5-4-----4-2-------2-----2---------|
B|---7~~~------0~~~----------5-------4-------2---2---2-------------|
G|-----------------------------6-------5-------3-------3-----------|
D|-----------------------------------------------------------------|
A|-----------------------------------------------------------------|
E|-----------------------------------------------------------------|

   B (p.m.)                D             E
e|-----------------------------------------------------------------|
B|-----------------------------------------------------------------|
G|-------------------------7-------------9-------------------------|
D|-9---------------------------------------------------------------|
A|-9-----------------------5-------------7-------------------------|
E|-7---------------------------------------------------------------|
[ Tab from: http://www.guitartabs.cc/tabs/s/shooting_blanks/abbey_normal_tab.html ]
SOLO:
   A                   D                   F#              D           E
e|---------------------------------------------------------------------------------------|
B|---------------------------------------------------------------------------------------|
G|-9999-7777-6666-4444-7777-6666-4444-6666-7-6-4-6-7-6-4-6-------------------------------|
D|------------------------------------------------------------44-55-77----66-77-99-------|
A|---------------------------------------------------------55----------77----------------|
E|---------------------------------------------------------------------------------------|

   A                               D
e|---------------------------------------------------------------------------------------|
B|---------------------------------------------------------------------------------------|
G|-14b--12h14p12----------12----12-14-14-14-14-14-14-12-12-12-12-------------------------|
D|---------------14-12-14----14-------------------------14-14-14-------------------------|
A|---------------------------------------------------------------------------------------|
E|---------------------------------------------------------------------------------------|

   F#                                  D                       E
e|-15h17h15----------15-17-15-17-15-17-21-21-19-19-17-17-19-17----------17-19-17----17~~-|
B|----------17-15-17-------------------------------------------19-17-19----------19------|
G|---------------------------------------------------------------------------------------|
D|---------------------------------------------------------------------------------------|
A|---------------------------------------------------------------------------------------|
E|---------------------------------------------------------------------------------------|

OUTRO:
 A                  D                  F#               D           E

   A                  D                  F#               D           E
e|---------------------------------------------------------------------------------|
B|---------------------------------------------------------------------------------|
G|-6-6-66-6-6-6-4-6-6-7-7-77-7-7-6-------9-9-99-9-9-7-6-4----7----7---9-9--9-------|
D|---------------------------------9-7-7-------------------------------------------|
A|---------------------------------------------------------------------------------|
E|---------------------------------------------------------------------------------|

| /  slide up
| \  slide down
| h  hammer-on
| p  pull-off
| ~  vibrato
| +  harmonic
| x  Mute note
===============================================================================
Comments