Shooting Blanks - 97 Miles Chords & Tabs

 

97 Miles Chords & Tabs

Shooting Blanks Chords & Tabs

Version: 1 Type: Tab 0 ratings
1 star 2 stars 3 stars 4 stars 5 stars
comments

97 Miles Tab

   
-------------------------------------------------------------------------------
			     97 MILES - Shooting Blanks
-------------------------------------------------------------------------------

Album: The Sticky ALbum
Tabbed by: Matt Hoffman
Email: Hoffman@shootingblanks.net

Tuning: Standard - E A D G B E


INTRO:
   B B         G# G#        E E        F# F#
e|----------------------------------------------------------|
B|----------------------------------------------------------|
G|--------------------------9-9--9-8-9--11-11--8h9p8-6-8----|
D|-9-9--9-8-----6-6--9-8----9-9---------11-11---------------|
A|-9-9------9---6-6------9--7-7---------9--9----------------|
E|-7-7----------4-4-----------------------------------------|

   B B         G# G#        E E        F# F#
e|----------------------------------------------------------|
B|----------------------------------------------------------|
G|--------------------------9-9--9-8-9--11-11--8h9p8h9s11~~-|
D|-9-9--9-8-----6-6--9-8----9-9---------11-11---------------|
A|-9-9------9---6-6------9--7-7---------9--9----------------|
E|-7-7----------4-4-----------------------------------------|

   B             G#            E             F#
e|----------------------------------------------------------|
B|----------------------------------------------------------|
G|-----------------------------9-9-99999-8-9-11-9-8-9-8-6---|
D|-9-9-99999-8---6-6-66669-8--------------------------------|
A|-------------9-------------9------------------------------|
E|----------------------------------------------------------|
[ Tab from: http://www.guitartabs.cc/tabs/s/shooting_blanks/97_miles_tab.html ]
   B             G#            E             F#
e|------------------------------------------------------------|
B|------------------------------------------------------------|
G|-----------------------------9-9-99999-8-9-11-9-8-9-8-6-8-6-|
D|-9-9-99999-8---6-6-66669-8----------------------------------|
A|-------------9-------------9--------------------------------|
E|------------------------------------------------------------|

VERSE 1:
 B            G#         E           F#

 B            G#         E           F#    E     G# (stop)

CHORUS:
 (after stop) E           B           F#
 G#           E           C#          E      F#

VERSE 2:
 B            D#         E           F#      G#  A#

 B            D#  g--8b--("stay!") E           F#      G#  A#

SOLO:
   B             G#          E            F#
e|-----------------------------------------------------------------|
B|-----------------------------------------------------------------|
G|---------------------------11-9-8-9-8-6-6-8-9-11-9-11-13-15------|
D|-9-9-99999-8-9-11-9-8-9-11---------------------------------------|
A|-----------------------------------------------------------------|
E|-----------------------------------------------------------------|

   B             G#             E                      F#             E      G#
e|---------------------------------------------------------------------------------|
B|---------------------------------------------------------------------------------|
G|-16~~-18-16-18-20-18-16-18-16--------------18b-16----16h18p16-------18b-16-16~~~-|
D|------------------------------------16-18--------18----------18-16---------------|
A|------------------------------16-18----------------------------------------------|
E|---------------------------------------------------------------------------------|

OUTRO:
 B            D#            E            F#

| /  slide up
| \  slide down
| h  hammer-on
| p  pull-off
| ~  vibrato
| +  harmonic
| x  Mute note
===============================================================================
Comments