Shonen Knife - Buttercup Chords & Tabs

 

Buttercup Chords & Tabs

Shonen Knife Chords & Tabs

Version: 1 Type: Tab 0 ratings
1 star 2 stars 3 stars 4 stars 5 stars
comments

Buttercup Tab

   
Band name:Shonen Knife - Buttercup
Title: Buttercup
by: jdimpas@lexmark.com
[ Tab from: http://www.guitartabs.cc/tabs/s/shonen_knife/buttercup_tab.html ]
Intro:
  Db  Gb  Ab
|-------------|
|-------------|
|-----11--13--|
|-11--11--13--|
|-11--9---11--|
|-9-----------|(x8)
verse
  Db  Gb  Ab
|-------------|
|-------------|
|-----11--13--|
|-11--11--13--|
|-11--9---11--|
|-9-----------|
chorus
Gb    Ab     Db
|------------|
|------------|
|---------6--|
|-4---6---6--|
|-4---6---4--|
|-2---4------|
end of chorus
Gb    Ab
|-------|
|-------|
|-------|
|-4---6-|
|-4---6-|
|-2---4-|
verse
chorus
interlude
|-------------------|
|-------------------|
|-6-------6---------|
|-6---4---6---4---6-|
|-4---4---4---4---6-|
|-----2-------2---4-|(x2)
solo
|-------------------------------------------------|
|-------------------------------------------------|
|-------------------------11-11-13-13-15-15-11-11-|
|-11-11-13-13-15-15-11-11-------------------------|
|-------------------------------------------------|
|-------------------------------------------------|
(x3)
|----------------------------------|
|-13-15-13-15-13-15-13-15-13-15-13-|
|----------------------------------|
|----------------------------------|
|----------------------------------|
|----------------------------------|
Comments