Shocore - My Girlfriend Is The Devil Chords & Tabs

 

My Girlfriend Is The Devil Chords & Tabs

Shocore Chords & Tabs

Version: 1 Type: Tab 0 ratings
1 star 2 stars 3 stars 4 stars 5 stars
comments

My Girlfriend Is The Devil Tab

Song: My Girlfriend is the Devil
Artist: Shocore
Album: Devil Rock Disco
As tabbed by Joe Muggah
joe_the_man3@hotmail.com

Verse 
e---------------------------------------------------------
B---------------------------------------------------------
G---------------------------------------------------------
D--2m-2m-2m-2m------------------5---5---------------------
A--2m-2m-2m-2m--1m--1m--1m/2m---5---5---------------------
E--0m-0m-0m-0m--0m--0m--0m------3---3---------------------

Chorus
e---------------------------------------------------------
B---------------------------------------------------------
G-----------3-3-3-3-3-3-4---------------------------------
D--2-2-2-2--3-3-3-3-3-3-4--5---5--------------------------
A--2-2-2-2--1-1-1-1-1-1-2--5---5--------------------------
E--0-0-0-0-----------------3---3--------------------------
("My girlfriend is the devil...")

Riff 1A (Guitar 1)
e---------------------------------------------------------
B---------------------------------------------------------
G------------10-10-------------10-10----------------------
D--6-6-6-6---10-10---6-6-6-6---10-10----------------------
A--6-6-6-6----8--8---6-6-6-6----8--8----------------------
E--4-4-4-4-----------4-4-4-4------------------------------

Riff 1B (Guitar 2)
e---3--3--------3--3-------3--3--------3--3~--------------
B---3--3--------3--3-------3--3--------3--3~--------------
G---------------------------------------------------------
D---------------------------------------------------------
A---------------------------------------------------------
E---------------------------------------------------------
[ Tab from: http://www.guitartabs.cc/tabs/s/shocore/my_girlfriend_is_the_devil_tab.html ]
Bridge 
e---------------------------------------------------------
B---------------------------------------------------------
G--------------10---------------10------------------------
D----10-9-8-6--10-----10-9-8-6--10------------------------
A----10-9-8-6---8-----10-9-8-6---8------------------------
E--0--8-7-6-4-------0--8-7-6-4----------------------------
("You took all my money...")

Solo
e---------------------------------14^---------------------
B--14-13-12-10-------14-13-12-10-------14-13-12-10--------
G---------------11^---------------------------------11^---
D---------------------------------------------------------
A---------------------------------------------------------
E---------------------------------------------------------

(continued)
e---------------14^---19-19-20-21-21^---------------------
B--14-13-12-10------------------------19^--17-------------
G----------------------------------------------17/18-18---
D---------------------------------------------------------
A---------------------------------------------------------
E---------------------------------------------------------

(continued)
e---------------------------------------------------------
B---------------------------------------------------------
G--18-18--16-17/18--18-16-17-18--14-----------------------
D-----------------------------------16--------------------
A---------------------------------------14-15-16--12^-----
E---------------------------------------------------------

Riff 2
e----------------------------18-18-18-18--19-19-19-19-----
B--20-20-20-20--17-17-17-17-------------------------------
G---------------------------------------------------------
D---------------------------------------------------------
A---------------------------------------------------------
E---------------------------------------------------------

Verse 
Chorus
Verse 
Chorus
Verse
Chorus
Riff 1A, 1B
Bridge
Bridge, Solo
Verse
Chorus
Chorus, Riff 2
Chorus
Comments