Shmuck - Pathetic Chords & Tabs

 

Pathetic Chords & Tabs

Shmuck Chords & Tabs

Version: 1 Type: Bass Tab 0 ratings
1 star 2 stars 3 stars 4 stars 5 stars
comments

Pathetic Bass Tab

   Intro
G-----------
D-----------
A-----1-2-3-
E-0-2-------

   Chorus
G--------------------------------------------------------------
D---------------------------------------4-3-4-3---3------------
A-4-4-4-0-4-0-------------2-2-2-0-2-0-----------6---4-4-4-0-4-0
E-------------4-4-4-0-4-0-------------2------------------------

G--------------------------------
D--------------------------------  Repeat (x2)
A-------------2-2-2-0-2-0---1-2-3
E-4-4-4-0-4-0-------------2------


  Verse
G---------------------------------------------------
D---------------------------------------------------
A-4-4-4---4---3-3-3---3---2-2-2---2---------------2-
E-------4---4-------4---4-------4---4-2-2-2-2-2-4---

G---------------------------------------------
D---------------------------------------------
A-4-4-4---4---3-3-3---3---2-2-2---2-----1-2-3-
E-------4---4-------4---4-------4---4-2-------
[ Tab from: http://www.guitartabs.cc/tabs/s/shmuck/pathetic_btab.html ]
  Bridge
G-------------------------------------------------------------------
D-------------------------------------------------------------------
A-4-4-------------2-2-------------4-4-------------2-2---------1-2-3-
E---------4-4-------------2-2-------------4-4-------------0-2-------

Chorus
Verse

  Solo
G-----------------------8-6-5-6---8-6-5-----10-8-6-8---10-8-6---------------
D---6-4-3-4---6-4-3---6---------6-------6-8----------8--------8----11-9-8-9-
A-4---------4-------4-------------------------------------------9-----------
E---------------------------------------------------------------------------

G------------
D---11-9-8---
A-9--------9- Repeat (x3)
E------------

   At end of third time
G---10-8-6---11-11-11-10-10-10-8-8-8-6-8-6
D-8--------8------------------------------  (back to bridge)
A-----------------------------------------
E-----------------------------------------

Chorus
Bridge
Comments