Shmuck - Back Home Chords & Tabs

 

Back Home Chords & Tabs

Shmuck Chords & Tabs

Version: 1 Type: Bass Tab 0 ratings
1 star 2 stars 3 stars 4 stars 5 stars
comments

Back Home Bass Tab

Intro:
G|-------------------------------|
D|-------------------------------| (x 3)
A|-2/5--5\7--0-----2/5--5/12--0--|
E|-------------------------------|

Bridge:
G|-------------------|
D|--3---3-5----------|
A|------------3---5--|
E|-------------------|

Chorus:
G|------------------------------|
D|------------------------------| (x4)
A|-------------3-2-2-3p2h3-0-0--|
E|-5-5-5-0-0-0------------------|
[ Tab from: http://www.guitartabs.cc/tabs/s/shmuck/back_home_btab.html ]
Verse:
G|---------7-9-7----------|
D|-------7---------7-9-7\-| (x4)
A|--2/5-------------------|
E|---------------5~~~~~~~~|

Bridge:
G|------5---------5--------7---------7---------------------|
D|--3-3---3-3-3-3---3--5-5---5-5-5-5---5------5---7-7----7-|
A|----------------------------------------3-3---5-----5----|
E|---------------------------------------------------------|

(chorus)
(verse)
(bridge)
(chorus)
(verse)

Outro:
G|--------------------|
D|-3~~~~~5~~~~~7~~~~~~|
A|--------------------|
E|--------------------|

visit SHMUCK's official website at
http://www.shmuck.cjb.net
Comments