Shins - We Will Become Silhouettes Chords & Tabs

 

We Will Become Silhouettes Chords & Tabs

Shins Chords & Tabs

Version: 1 Type: Tab 0 ratings
1 star 2 stars 3 stars 4 stars 5 stars
comments

We Will Become Silhouettes Tab

   
We Will Become Silhouettes by The Shins (Postal Service cover)

I love this song!!!  I haven't seen it on any tab sites, so I thought that

I'd try it out.

It's my first tab, so be kind.


(Intro and Verse)

    A         D
|--0-0-0-0----2-2-2-2--|
|--2-2-2-2----3-3-3-3--|
|--2-2-2-2----2-2-3-2--|
|--2-2-3-2----0-0-0-0--|
|--0-0-0-0----0-0-0-0--|
|----------------------|


(Prechorus)
[ Tab from: http://www.guitartabs.cc/tabs/s/shins/we_will_become_silhouettes_tab.html ]
   Bm         D
|--2-2-2-2----2-2-2-2--|
|--3-3-3-3----3-3-3-3--|
|--4-4-4-4----2-2-2-2--|
|--4-4-4-4----0-0-0-0--|
|--2-2-2-2----0-0-0-0--|
|----------------------|

To Someone... Someone I Used to Know



(Chorus)

   Bm                E
|--2-2-2-2--------------7-7-7-7--|
|--3-3-3-3--------------9-9-9-9--|
|--4-4-4-4--4--6--7--9--9-9-9-9--|
|--4-4-4-4--------------9-9-9-9--|
|--2-2-2-2--------------7-7-7-7--|
|--------------------------------|

And We'll Become...


That's It!!
Enjoy
Comments