Shins - Turn A Square Chords & Tabs

 

Turn A Square Chords & Tabs

Shins Chords & Tabs

Version: 1 Type: Tab 0 ratings
1 star 2 stars 3 stars 4 stars 5 stars
comments

Turn A Square Tab

   
----------------------------------------------------------------------------
			 TURN A SQUARE - The Shins
----------------------------------------------------------------------------

Email: skemo_the_fish@hotmail.com

Tuning: Standard
  
  Main Riff
e|-------------------|-----------------|-----------------|-----------------|
B|-------------------|-----------------|-----------------|-----------------|
G|-o-----------------|-----------------|-----------------|-----------------|
D|-o-----------------|---------4-2-0---|-----------------|---------4-2-0---|
A|-----------4-2-0---|-0-0-4-0-------4-|-----2---5-4-2-0-|-0-0-4-0-------4-|
E|---0-0-4-0-------4-|-----------------|-3-3---3---------|-----------------|
[ Tab from: http://www.guitartabs.cc/tabs/s/shins/turn_a_square_tab.html ]
e|------------------|-----------------|-----------------|-----------------|
B|------------------|-----------------|-----------------|-----------------|
G|------------------|-----------------|---------4-2-0---|-----------------|
D|------------------|---------4-2-0---|-0-0-4-0-------4-|---------4-2-0---|
A|----------4-2-0---|-0-0-4-0-------4-|-----------------|-0-0-4-0-------4-|
E|--0-0-4-0-------4-|-----------------|-----------------|-----------------|
 __________________
 |1.
e|----------------|
B|--5---5---5-----|
G|--4---4---4---o-|
D|--5---5---5---o-|
A|--3---3---3-----|
E|----------------|
 ______(Chorus)______ 
 |2.
e|-------------------------|------------------------------|
B|-------------------------|--2---0-0---2-----------------|
G|-------------------------|--2---0-0---2-----------------|
D|------------------2-4-5--|--2---0-0---2---2-2-4-2-0--2--|
A|--5---4-4---5---5--------|--0---0-0---0-----------------|
E|--3---3-3---3---3--------|------------------------------|

e|-------------------------|---------------------------------|--0--|
B|-------------------------|--2---0-0---2-2---5-5-5--5-5-5-5-|--0--|
G|-------------------------|--2---0-0---2-2---4-4-4--4-4-4-4-|--x--|
D|------------------2-4-5--|--2---0-0---2-2---5-5-5--5-5-5-5-|--2--|
A|--5---4-4---5---5--------|--0---0-0---0-0---3-3-3--3-3-3-3-|--2--|
E|--3---3-3---3---3--------|---------------------------------|--0--|

  Solo (8 times)         |-------  2x -----------|---------- 2x ---------|
e|---9p0----------------||-----------------------|-----------------------|
B|-------8p0------------||-----------------------|-----------------------|
G|-o---------7p0-6p0--o-||-o---------------------|---------------------o-|
D|-o------------------o-||-o---------------------|---------------------o-|
A|----------------------||-----------------------|-----------------------|
E|----------------------||---3-33-3333-3-33-3333-|-5-55-5555-5-55-5555---|
                             * ** **** * ** ****   * ** **** * ** ****
  Ending      
e|--------------0---|
B|--5-5-5-5-5-5-0---|
G|--4-4-4-4-4-4-1---|
D|--5-5-5-5-5-5-2---|
A|--3-3-3-3-3-3-2---|
E|--------------0---|


| /  slide up
| \  slide down
| h  hammer-on
| p  pull-off
| ~  vibrato
| +  harmonic
| x  Mute note
| *  Palm mute
============================================================================
Comments