Shins - Turn A Square Chords & Tabs

 

Turn A Square Chords & Tabs

Shins Chords & Tabs

Version: 1 Type: Bass Tab 0 ratings
1 star 2 stars 3 stars 4 stars 5 stars
comments

Turn A Square Bass Tab

   
Intro/Verse
G-----------------------------------------------------------------|
D-------------------------4-2-0-----------2-0-------------4-2-0---|
A---------4-2-0---0-0-4-0-------4-----2-------3-2-0-0-4-0-------4-|
E-0-0-4-0-------4-----------------3-3---3-------------------------|
[ Tab from: http://www.guitartabs.cc/tabs/s/shins/turn_a_square_btab.html ]
G-----------------------------------------4-2-0------------------|
D-------------------------4-2-0---0-0-4-0-------4--------4-2-0---|
A---------4-2-0---0-0-4-0-------4-----------------0-0-4-0------4-|
E-0-0-4-0-------4------------------------------------------------|

G---------|
D---------|
A-3--3--3-|
E---------|  *end with this only on intro

Chorus
G-------------------------------------  G---|
D-------------------------------------  D---|
A------------------0--0-0--0--0-0-0-0-  A-3-|*play it as many times as needed
E-3--3-3--3--3-3-3-3------------------  E---|

End Note
G---
D---
A---
E-0-

Order
Intro
Verse (x2)
Chorus(x2)
Verse (x2)
Chorus(x4)
Verse
Chorus(x4)
End Note
Comments