Shins - Those To Come Chords & Tabs

 

Those To Come Chords & Tabs

Shins Chords & Tabs

Version: 1 Type: Tab 0 ratings
1 star 2 stars 3 stars 4 stars 5 stars
comments

Those To Come Tab

The Shins - Those to Come 
Album - Chutes too Narrow
Author - Ashley Dunstan
email comments to - charlene.dwayne@xtra.co.nz			

E------------------------
B------------0-(let ring)
G-------7-------7--------	
D-----7---7--------------
A---5-(let ring)---------
E------------------------

Repeat the above many times until the verse chord change:

E--------------------------
B--------------------------
G-------------0(let ring)--
D--------7------7----------
A-----7----7---------------
E---5(let ring)------------

Then go back to:

E------------------------
B------------0-(let ring)
G-------7-------7--------	
D-----7---7--------------
A---5-(let ring)---------
E------------------------

Play this another few times before the chorus:
[ Tab from: http://www.guitartabs.cc/tabs/s/shins/those_to_come_tab.html ]
E------------------------
B---------8--------------
G-----9-----9------------
D-------9----------------
A---7(let ring)----------
E------------------------

Play this another 3 or 4 times then its the keyboard solo. During the
solo the guitar plays the same as in the verse.
When the keyboard solo comes in its playing these notes:

E--------------------------------------------------
B--------------------------------------------------
G---7---4------------------------------------------
D-----------7-------7------------7-----------------
A---------------5-------7----5-------7----5--------
E--------------------------------------------5--7--

Sorry haven't figured out the last part of the keyboard line yet.
Will do it later.
And thats it! Great song.
Comments