Shins - Pink Bullets Chords & Tabs

 

Pink Bullets Chords & Tabs

Shins Chords & Tabs

Version: 2 Type: Tab

Pink Bullets Tab

   
-------------------------------------------------------------------------------
			     PINK BULLETS - The Shins
-------------------------------------------------------------------------------
Tabbed by: Jeff Krivo	
Email:krivo@rice.edu	

Tuning: eBGDAE
CAPO III
Here are the chords for this song (relative to capo)

Intro/Verse/solo:
Em - D - A (many times)

Chorus:
G - D - G - D - G - D - F - C - D

Bridge
C - D - F - G - C - D - F - G - C - D - G - C - C - D

[ Tab from: http://www.guitartabs.cc/tabs/s/shins/pink_bullets_tab_ver_2.html ]
Intro/Verse riff "capo zero":
e|------10--------8-------5-----5-5------------------------------------------|
B|---------8--------6---------3------6/8-------------------------------------|
G|----7------7/-------5/----2------------------------------------------------|
D|---------------------------------------------------------------------------|
A|---------------------------------------------------------------------------|
E|---------------------------------------------------------------------------|

Harmonica? solo (NOT relative to capo): 
e|----15~~~~~~~-13-----------------22-17-18-15-----15\13---------------13----|
B|-----------------15-11h13-13-15------------------------15---15h13-11-------|
G|---------------------------------------------------------------------------|
D|---------------------------------------------------------------------------|
A|---------------------------------------------------------------------------|
E|---------------------------------------------------------------------------|



| /  slide up
| \  slide down
| h  hammer-on
| p  pull-off
| ~  vibrato
| +  harmonic
| x  Mute note
===============================================================================