Shins - New Slang Chords & Tabs

 

New Slang Chords & Tabs

Shins Chords & Tabs

Version: 2 Type: Tab 0 ratings
1 star 2 stars 3 stars 4 stars 5 stars
comments

New Slang Tab

   
#----------------------------------PLEASE NOTE---------------------------------#
#This file is the author's own work and represents their interpretation of the #
#song. You may only use this file for private study, scholarship, or research. #
#------------------------------------------------------------------------------#
#

Artist:     The Shins
Album:      Oh, Inverted World
Song:       New Slang
Tab Author: Willie D  

Chords:

Am x02210
C  x32010
F  133211
G  320003


Intro:


Am - C - F - C - G - C - Am - G  x4

finish with
 C
-0-----------|
-1-----------|
-0-----------|
-2-----------|
-3--3-2------|
-------------|

Verse:


Am - C - F - C - G - C - F - Am - G  x2

Chorus:

G - C - F - C - G

G - C

F - C - F - C - F - C - G

Repeat Verse, Repeat Chorus

Solo 1:

h= hammer on
/= slide
p= pull off

----0h3-0---------1-0--3/5-3-0-------0-----0-3-3/5-5-5-5-3-------|
--3-------3-1-0-1--------------3-1-3-----1-----------------------|
-----------------------------------------------------------------|
-----------------------------------------------------------------|
-----------------------------------------------------------------|
-----------------------------------------------------------------|
[ Tab from: http://www.guitartabs.cc/tabs/s/shins/new_slang_tab_ver_2.html ]

--5-3-0-------0--------------------------------------------------|
--------3-1-3-------0-1---0-3-1----------------------------------|
------------------2-----0----------------------------------------|
------------------------------------2p0--------------------------|
----------------------------------------h3----3-2----------------|
-----------------------------------------------------------------|

Last Verse:

Am - C - F - C - G - C - F - Am - G  x1


Last Chorus:


G - C - F - C - G  x2

G - C

F - C - F - C - F - C - G

Solo 2:

------0-------0-1-0-1-3-5-3---0-------0-0-1-0-1-3-5-3------------|
--0h1---3p1h3-------------------3p1h3----------------------------|
-----------------------------------------------------------------|
-----------------------------------------------------------------|
-----------------------------------------------------------------|
-----------------------------------------------------------------|


------0----------------------------------------------------------|
--1-3---3-1-0---0-1----------------------------------------------|
--------------2--------------------------------------------------|
----------------------2p0----------------------------------------|
--------------------------3---3-2--------------------------------|
-----------------------------------------------------------------|


Outro: Same as intro. Finish on C
Comments