Shins - New Slang Chords & Tabs

 

New Slang Chords & Tabs

Shins Chords & Tabs

Version: 1 Type: Bass Tab 0 ratings
1 star 2 stars 3 stars 4 stars 5 stars
comments

New Slang Bass Tab

   
Bass starts at 00:33

Intro:

G|------------|----||
D|------------|----||
A|0-------3---|3-2-||
E|----3-------|----||


Riff 1

G|-----------------------------------------------||
D|-----------------------------------------------||
A|0------3-----------3-----------3---------------||
E|---0------01----------03----------01------5--3-||


Riff 2
 
G|--------------12---------------------------------||
D|12---------------14-12-10----10------------------||
A|---14-12-10----------------------10---12---------||
E|----------------------------------------12-10-9--||


Riff 3
[ Tab from: http://www.guitartabs.cc/tabs/s/shins/new_slang_btab.html ]
G|--------------12--------------------------------------------------||
D|12---------------14-12-10----10-----------------------------------||
A|---14-12-10----------------------10-----3--2---23--2---23--2---25-||
E|--------------------------------------------3-------3-------3-----||

G|----||
D|----||
A|5-2-||
E|----||


Riff 4

G|----------------------------------------------------------------||
D|----------------------------------------------------------------||
A|3----3-------3---5-------5---3----3-----3---5-------0-------3---||
E|-3--------3-----3-----3-----3--------------3-----3-------3------||


Riff 5

G|----------------||
D|----------------||
A|0-----3---3-0---||
E|--3-1---3-----3-||


End On:

G|----||
D|----||
A|3---||
E|----||



Intro
Riff 1 x2 
Riff 2 x1 
Riff 3 x1
Riff 1 x2
Riff 2 x1
Riff 3 x1
Riff 4 x1
Riff 1 x1
Riff 2 x2
Riff 3 x1
Riff 4 x1
Riff 5 x1



Email corrections, please. =)
Comments