Shins - Kissing The Lipless Chords & Tabs

 

Kissing The Lipless Chords & Tabs

Shins Chords & Tabs

Version: 1 Type: Tab 0 ratings
1 star 2 stars 3 stars 4 stars 5 stars
comments

Kissing The Lipless Tab

   
-------------------------------------------------------------------------------
		      Kissing The Lipless - The Shins
-------------------------------------------------------------------------------
Tabbed by: Bert
Email: kline.159@osu.edu

Tuning: eBGDAE

 B	Db	B*	Db*	Ebm	E
 7 	4	2	9	6	7
 7 	6	4	9	7	9
 8	6	4	10	8	9
 9	6	4	11	8	9
 9	4	2	11	6	7
 7			9

They mix it up a little, but here is the general idea
Verse Acoustic
B   Db*
B   Db*
B   Db*
B*  Db  (last time) Ebm   E

Verse Electric
B   Db
B   Db
B   Db
B*  Db  (last time) Ebm   E

solos

e|---------------------------------------------------------------------------|
B|---------------------------------------------------------------------------|
G|---------------------------------------------------------------------------|
D|--13-13-13-13--11--9--8--9--3---6---11-------------------------------------|
A|---------------------------------------------------------------------------|
E|---------------------------------------------------------------------------|
[ Tab from: http://www.guitartabs.cc/tabs/s/shins/kissing_the_lipless_tab.html ]
e|---------------------------------------------------------------------------|
B|------------7-9/11-11-11-12-11-14-11-12-11-9-7-6/7--4--2---7-4-2-2--0------|
G|----------------------------------------------------------------------3----|
D|-6---11--------------------------------------------------------------------|
A|---------------------------------------------------------------------------|
E|---------------------------------------------------------------------------|

e|---------------------------------------------------------------------------|
B|----------7\5--7\5--7\5--7\5--9-9-9--7--5--4--5--7-------------------------|
G|----------6\4--6\4--6\4--6\4-----------------------------------------------|
D|---------------------------------------------------------------------------|
A|---------------------------------------------------------------------------|
E|---------------------------------------------------------------------------|

e|---------------------------------------------------------------------------|
B|---2/4---4/6---6/7---7/9-9\7----x3--------------end-on-----2---------------|
G|---------------------------------------------------------------------------|
D|---------------------------------------------------------------------------|
A|---------------------------------------------------------------------------|
E|---------------------------------------------------------------------------|



| /  slide up
| \  slide down
| h  hammer-on
| p  pull-off
| ~  vibrato
| +  harmonic
| x  Mute note
===============================================================================
Comments