Shins - Gloating Sun Chords & Tabs

 

Gloating Sun Chords & Tabs

Shins Chords & Tabs

Version: 1 Type: Tab 0 ratings
1 star 2 stars 3 stars 4 stars 5 stars
comments

Gloating Sun Tab

   
-------------------------------------------------------------------------------
			     The Gloating Sun - The Shins
-------------------------------------------------------------------------------
Tabbed by: Andrew Franks	
Email: borkaborka@hotmail.com

Tuning: Standard, Capo on 3rd Fret

Intro  Repeat 8X
e|----0----0-----------------------------------------------------------------|
B|----1----1-----------------------------------------------------------------|
G|----0----0-----------------------------------------------------------------|
D|----0h2--0h2---------------------------------------------------------------|
A|----3----3-----------------------------------------------------------------|
E|---------3-----------------------------------------------------------------|

Verse
Repeat 2x
e|----0-----0---------x------------------------------------------------------|
B|----1-----1---------4------------------------------------------------------|
G|----0-----0---------0------------------------------------------------------|
D|----0h2---0h2-------5------------------------------------------------------|
A|----3-----3---------6------------------------------------------------------|
E|----------3------5--6------------------------------------------------------|

Chorus 1
[ Tab from: http://www.guitartabs.cc/tabs/s/shins/gloating_sun_tab.html ]
e|---1---1-----0-------------------------------------------------------------|
B|---3---1-----1-------------------------------------------------------------|
G|---3---2-----0-------------------------------------------------------------|
D|---3---3-----2-------------------------------------------------------------|
A|---1---3-----3-------------------------------------------------------------|
E|-------1-----3-------------------------------------------------------------|

Verse 
Repeat 2X
e|----0-----0---------x------------------------------------------------------|
B|----1-----1---------4------------------------------------------------------|
G|----0-----0---------0------------------------------------------------------|
D|----0h2---0h2-------5------------------------------------------------------|
A|----3-----3---------6------------------------------------------------------|
E|----------3------5--6------------------------------------------------------|

Chorus 2

e|---1----1----0------1---1-----1---1----1----1---x--------------------------|
B|---3----1----1------3---1-----3---1----3----1---4--------------------------|
G|---3----2----0------3---2-----3---2----3----2---0--------------------------|
D|---3----3----2------3---3-----3---3----3----3---5--------------------------|
A|---1----3----3------1---3-----1---3----1----3---6--------------------------|
E|--------1----3----------1---------1---------1---6--------------------------|

Outro Repeat to end

e|----0----0-----------------------------------------------------------------|
B|----1----1-----------------------------------------------------------------|
G|----0----0-----------------------------------------------------------------|
D|----0h2--0h2---------------------------------------------------------------|
A|----3----3-----------------------------------------------------------------|
E|---------3-----------------------------------------------------------------|




| /  slide up
| \  slide down
| h  hammer-on
| p  pull-off
| ~  vibrato
| +  harmonic
| x  Mute note
===============================================================================
Comments