Shinedown - Yer Majesty Chords & Tabs

 

Yer Majesty Chords & Tabs

Shinedown Chords & Tabs

Version: 2 Type: Tab

Yer Majesty Tab

============================================================================
Title: *Yer Majesty*
Artist: Shinedown
Album: Us and Them
============================================================================
Track: -5-
============================================================================
Tuning: Drop-D ( DADGBe )
Tablatured by Asa Gaston
============================================================================
INTRO---

E:---------------------------------------------------|
B:---------------------------------------------------|
G:---------------------------------------------------|
D:---------------------------------0-----------------|
A:---------------3--------------3-----3--0-----------|
D:---0--3--0--3-----0--3--0--3--------------5--0--3--|

VERSE---1 & 2
[ Tab from: http://www.guitartabs.cc/tabs/s/shinedown/yer_majesty_tab_ver_2.html ]
E:-------------------------------------------------------------|
B:-------------------------------------------------------------|
G:-------------------------------------------------------------|
D:---------------------------------0---------------------------|
A:---------------3--------------3-----3--0---------------------|
D:---0--3--0--3-----0--3--0--3--------------5--0--3----------\-|
                                                             - 2x
E:------------------------------------------------------------|
B:------------------------------------------------------------|
G:------------------------------------------------------------|
D:-------------------3--5--5-----------------0----------------|
A:---------------3---3--5--5--------------3-----3--0----------|
D:---0--3--0--3------3--5--5--0--3--0--3--------------5--0--3-|

PRE-CHORUS---

E:---------------------------------|
B:---------------------------------|
G:---------------------------------|
D:---------------------------------|   3x
A:---11p9--11p9--11p9--11p9--11p9--|
D:---------------------------------|

E:--------------------------|
B:--------------------------|
G:------6-6---6-----6-6---6-|
D:---9------9----9------9---|
A:--------------------------|
D:--------------------------|

CHORUS---

E:------------------|
B:------------------|
G:------------------|
D:---0--3--5--3--0--|  3x
A:---0--3--5--3--0--|
D:---0--3--5--3--0--|

E:-----------------------------|
B:-----------------------------|
G:-----------------------------|
D:---0--3--5--5--4---0---5--5--|
A:---0--3--5--5--4---0---5--5--|
D:---0--3--5--5--4---0---5--5--|

NOTE: That's pretty much the main structure of the song. I haven't
      figured out the bridge, but who cares, right?
      Any way...   ...ENJOY!!!

                                -Asa