Shinedown - Trade Yourself In Chords & Tabs

 

Trade Yourself In Chords & Tabs

Shinedown Chords & Tabs

Version: 2 Type: Tab

Trade Yourself In Tab

   
============================================================================
Title: *Trade Yourself In* { INTRO }
Artist: Shinedown
Album: Us and Them
============================================================================
Produced by 'Driven By Music' and Big Ant Music, BMI ASCAP'
============================================================================
Label: Atlantic Records
Year: 2005
============================================================================
Track: -7-
============================================================================
Tablatured by Asa Gaston
============================================================================
Tuning: Drop-Db ( Db-Ab-Db-Gb-Bb-Eb )
============================================================================
[ Tab from: http://www.guitartabs.cc/tabs/s/shinedown/trade_yourself_in_tab_ver_2.html ]
E|-------------------------------------------------------------------------|
B|-------6-6-6-6-5-5-5-5-------------6-6-6-6-5-5-5-5--------------6-6-6-6--|
G|-----------------------5-5-5-5---------------------5-5-5-5---------------|
D|---0----------------------------0---------------------------0------------|
A|---0----------------------------0---------------------------0------------|
D|---0----------------------------0---------------------------0------------|

E|-------------------------------------------------------------------------|
B|---5-5-----8-8--5-5-----------------------------------------5h6-5--------|
G|-------5-5--------------------------------------------------------7--5---|
D|----------------------0--8-8---0--8-8---0--8----12--10--12-------------7-|
A|----------------------0--8-8---0--8-8---0--8----12--10--12---------------|
D|----------------------0--8-8---0--8-8---0--8----12--10--12---------------|

E|-------------------------------------------------------------------------|
B|------------------------------------5h6-5--------------------------------|
G|------------------------------------------7--5---------------------------|
D|---12--10--12---3-3-----12--10--12-------------7---------8---------7-----|
A|---12--10--12---3-3-----12--10--12-----------------------8---------7-----|
D|---12--10--12---3-3-----12--10--12-----------------8--8--8---7--7--7-----|