Shinedown - Trade Yourself In Chords & Tabs

 

Trade Yourself In Chords & Tabs

Shinedown Chords & Tabs

Version: 1 Type: Tab

Trade Yourself In Tab

tabbed by : salty_oreo_17@yahoo.com
band      : Shinedown	
song      : trade yourself in
album     : us and them
tuning    : drop d


---------------------------------------------------------------------

e|-------------------|  |------------------|---------------|
B|-------------------|  |------------------|---------------|
G|-------------------|x2|------------------|----2-2--2-2--2|
D|--2--2222-1111-----|  |--2--2222-111-2-2-|--2----2----2--|
A|--2------------2222|  |--2-----------2--2|--2----2----2--|
D|--2----------------|  |--2-----------2---|--2----2----2--|


---------------------------------------------------------------------

e|----------------|----------|----------------|---------|
B|----------------|----------|----------------|---------|
G|----------------|----------|----------------|---------|
D|--2-1-2-1h2p1p0-|--2-1-2-2b|--2-1-2-1h2p1p0-|--2-1-2-2|
A|--2------------2|--2-----2b|--2------------2|--2---2--|
D|--2-------------|--2-----2b|--2-------------|--2---2--|


---------------------------------------------------------------------

e|----------------|----------|----------------|---------|
B|----------------|----------|----------------|---------|
G|----------------|--------4b|----------------|---------|
D|--2-1-2-1h2p1p0-|--2-1-2---|--2-1-2-1h2p1p0-|--2---2--|
A|--2------------2|--2-------|--2------------2|--2-1-2-2|
D|--2-------------|--2-------|--2-------------|--2---2--|


---------------------------------------------------------------------

e|----------------|----------|----------------|---------|
B|----------------|----------|----------------|---------|
G|----------------|----------|----------------|---------|
D|--2-1-2-1h2p1p0-|--2-1-2-2b|--2-1-2-1h2p1p0-|--2---2--|
A|--2------------2|--2-----2b|--2------------2|--2-1-2-2|
D|--2-------------|--2-----2b|--2-------------|--2---2--|


---------------------------------------------------------------------

e|------------------------------------------|
B|------------------------------------------|
G|--------------------------6-6-6-6---------|
D|--2-2-2-2-4-4-4-4-2-2-2-2-6-6-6-6-11111111|
A|--2-2-2-2-4-4-4-4-2-2-2-2-4-4-4-4-11111111|
D|--2-2-2-2-4-4-4-4-2-2-2-2---------11111111|


--------------------------------------------------------------------

e|---------------------------------|
B|---------------------------------|
G|--4-4-4-4-6-6-6-6-3-3-3-3--------|X2
D|--4-4-4-4-6-6-6-6-3-3-3-3-4-4-4-4|
A|--2-2-2-2-4-4-4-4-1-1-1-1-4-4-4-4|
D|--------------------------4-4-4-4|


---------------------------------------------------------------------

e|----------------|----------|----------------|---------|
B|----------------|----------|----------------|---------|
G|----------------|----------|----------------|---------|
D|--2-1-2-1h2p1p0-|--2-1-2-2b|--2-1-2-1h2p1p0-|--2-1-2-2|
A|--2------------2|--2-----2b|--2------------2|--2---2--|
D|--2-------------|--2-----2b|--2-------------|--2---2--|


---------------------------------------------------------------------
[ Tab from: http://www.guitartabs.cc/tabs/s/shinedown/trade_yourself_in_tab.html ]
e|----------------|----------|----------------|---------|
B|----------------|----------|----------------|---------|
G|----------------|--------4b|----------------|---------|
D|--2-1-2-1h2p1p0-|--2-1-2---|--2-1-2-1h2p1p0-|--2---2--|
A|--2------------2|--2-------|--2------------2|--2-1-2-2|
D|--2-------------|--2-------|--2-------------|--2---2--|


---------------------------------------------------------------------

e|----------------|----------|----------------|---------|
B|----------------|----------|----------------|---------|
G|----------------|----------|----------------|---------|
D|--2-1-2-1h2p1p0-|--2-1-2-2b|--2-1-2-1h2p1p0-|--2---2--|
A|--2------------2|--2-----2b|--2------------2|--2-1-2-2|
D|--2-------------|--2-----2b|--2-------------|--2---2--|


---------------------------------------------------------------------


e|------------------------------------------|
B|------------------------------------------|
G|--------------------------6-6-6-6---------|
D|--2-2-2-2-4-4-4-4-2-2-2-2-6-6-6-6-11111111|
A|--2-2-2-2-4-4-4-4-2-2-2-2-4-4-4-4-11111111|
D|--2-2-2-2-4-4-4-4-2-2-2-2---------11111111|


--------------------------------------------------------------------


e|---------------------------------|
B|---------------------------------|
G|--4-4-4-4-6-6-6-6-3-3-3-3--------|X2
D|--4-4-4-4-6-6-6-6-3-3-3-3-4-4-4-4|
A|--2-2-2-2-4-4-4-4-1-1-1-1-4-4-4-4|
D|--------------------------4-4-4-4|


--------------------------------------------------------------------
                                    --------|
e|-------------------|  |---------------|   |
B|-------------------|  |---------------|   | REPEAT THIS PART
G|-------------------|x3|----2-2--2-2--2|   |       TWICE
D|--2--2222-1111-----|  |--2----2----2--|   |
A|--2------------2222|  |--2----2----2--|   |
D|--2----------------|  |--2----2----2--|   |
                                    --------|

--------------------------------------------------------------------

SOLO:

e|-------------------------10-------------------------------13b-----------|
B|-------9~-8-7-10-10h13p10--13p10-12-10-----10h13-----10h13----13p10h13--|
G|-5~-9~--------------------------------10h12-----10h12-----------------13|
D|------------------------------------------------------------------------|
A|------------------------------------------------------------------------|
D|------------------------------------------------------------------------|


--------------------------------------------------------------------


e|---------------------------------|
B|---------------------------------|
G|--4-4-4-4-6-6-6-6-3-3-3-3--------|X4
D|--4-4-4-4-6-6-6-6-3-3-3-3-4-4-4-4|
A|--2-2-2-2-4-4-4-4-1-1-1-1-4-4-4-4|
D|--------------------------4-4-4-4|


--------------------------------------------------------------------

e|-------------------|  |---------------|   
B|-------------------|  |---------------|   
G|-------------------|x3|----2-2--2-2--2|   
D|--2--2222-1111-----|  |--2----2----2--|   
A|--2------------2222|  |--2----2----2--|   
D|--2----------------|  |--2----2----2--|  


--------------------------------------------------------------------

THATS ALL PLEASE RATE