Shinedown - Simple Man Chords & Tabs

 

Simple Man Chords & Tabs

Shinedown Chords & Tabs

Version: 4 Type: Tab 0 ratings
1 star 2 stars 3 stars 4 stars 5 stars
comments

Simple Man Tab

band:shinedown
album:leave a whisper revised
Song:simple man

[ Tab from: http://www.guitartabs.cc/tabs/s/shinedown/simple_man_tab_ver_4.html ]
intro
E---------------------------------------------------3----------|
B-----------1---------------------------1----1---------1-------|
G--------------0---0-------0--------------2----2---------------|
D--------2-------2-----------0---0----2-----2----2-------------|
A--0-2-3-----------------2-----2----0--------------------------|
E----------------------3---------------------------------------|
intro continued
E----------------------------------------------------------------|
B----------1-----------------------1-1-1-1-----------------------|
G------------0----0-------0--------2-2-2-2-----------------------|
D-------2-------2-----------0--0---2-2-2-2-----------------------|
A-0-2-3-----------------2-----2----------------------------------|
E---------------------3------------------------------------------|
verse Same as Intro pt 1
E-------------------------------------------------------------|
B-------------------------------------------------------------|
G-------------------------------------------------------------|
D-------------------------------------------------------------|
A-------------------------------------------------------------|
E-------------------------------------------------------------|
chorus
E---------------------------------------------------------------|
B---------------------1-1-1-1-----------------------------------|
G---------------------2-2-2-2-----------------------------------|
D--10-10-10--5-5-5-7--2-2-2-2-----------------------------------|
A--10-10-10--5-5-5-7--------------------------------------------|
E--8--8--8---3-3-3-5--------------------------------------------|
Comments