Shinedown - Save Me Chords & Tabs

 

Save Me Chords & Tabs

Shinedown Chords & Tabs

Version: 4 Type: Tab

Save Me Tab

im not sure how many guitars are used for this song but i've tabbed it for 2
GUITAR 1
-----------------------------------------------------------------------------
INTRO
|--------------------|
|--------------------|
|6^(6)---6^(6)---4p3-|
|----7---------7-----|
|--------------------|
|--------------------|
 VERSE
|-----------------------------|
|-----------------------------|
|-------------------------4-3-|
|6^6-----4p3------6^6-----5-4-|
|----7----------------7-------|
|-----------------------------|
I've got a candle.......with no doors and no rooms
|------------0----------0-0-|
|----0---------------0--0-0-|
|---4------7------------4-3-|
|--4-----7---------7----5-4-|
|-2----5---------7------5-4-|
|--------------5--------3-2-|
And under a windowsill they all were found
|----------------------------------------------------------------|
|----------------------------------------------------------------|
|4-4-4-4-4-4-4-4-7-7-7-7-7-7-7-7-6-6-6-6-6-6-6-6-4-4-4-4-3-3-3-3-|
|x-x-x-x-x-x-x-x-x-x-x-x-x-x-x-x-x-x-x-x-x-x-x-x-x-x-x-x-x-x-x-x-|
|2-2-2-2-2-2-2-2-5-5-5-5-5-5-5-5-4-4-4-4-4-4-4-4-2-2-2-2-1-1-1-1-|
|----------------------------------------------------------------|
A touch of concrete within the doorway, without a sound
CHORUS
|----------------------------------------------------------------|play twice
|----------------------------------------------------------------|
|4-4-4-4-4-4-4-4-------------------------------------------------|
|4-4-4-4-4-4-4-4-4-4-4-4-4-4-4-4-7-7-7-7-7-7-7-7-5-5-5-5-4-4-4-4-|
|2-2-2-2-2-2-2-2-4-4-4-4-4-4-4-4-7-7-7-7-7-7-7-7-5-5-5-5-4-4-4-4-|
|----------------2-2-2-2-2-2-2-2-5-5-5-5-5-5-5-5-3-3-3-3-2-2-2-2-|
Someone save me if you will......blasphemy in my wasteland
POST-CHORUS
|--------------------|
|--------------------|
|6^(6)---6^(6)---4p3-|
|--7--------7--------|
|--------------------|
|--------------------|
VERSE
|---------------------------|
|---------------------------|
|6^(6)---4p3----6^(6)---4p3-|
|----7---------------7------|
|---------------------------|
|---------------------------|
How did I get here.....now I'm far beyond gone
|----------------------------------------------------------------|
|----------------------------------------------------------------|
|4-4-4-4-4-4-4-4-7-7-7-7-7-7-7-7---------------------------------|
|4-4-4-4-4-4-4-4-7-7-7-7-7-7-7-7-7-7-7-7-7-7-7-7-5-5-5-5-4-4-4-4-|
|2-2-2-2-2-2-2-2-5-5-5-5-5-5-5-5-7-7-7-7-7-7-7-7-5-5-5-5-4-4-4-4-|
|--------------------------------5-5-5-5-5-5-5-5-3-3-3-3-2-2-2-2-|
And I can hardly remember the look of my own eyes
|----------------------------------------------------------------|
|----------------------------------------------------------------|
|4-4-4-4-4-4-4-4-7-7-7-7-7-7-7-7-6-6-6-6-6-6-6-6-4-4-4-4-3-3-3-3-|
|x-x-x-x-x-x-x-x-x-x-x-x-x-x-x-x-x-x-x-x-x-x-x-x-x-x-x-x-x-x-x-x-|
|2-2-2-2-2-2-2-2-5-5-5-5-5-5-5-5-4-4-4-4-4-4-4-4-2-2-2-2-1-1-1-1-|
|----------------------------------------------------------------|
How could I love this? My life's so dishonest, it made me compromise
CHORUS
|----------------------------------------------------------------|
|----------------------------------------------------------------|
|4-4-4-4-4-4-4-4-------------------------------------------------|
|4-4-4-4-4-4-4-4-4-4-4-4-4-4-4-4-7-7-7-7-7-7-7-7-5-5-5-5-4-4-4-4-|
|2-2-2-2-2-2-2-2-4-4-4-4-4-4-4-4-7-7-7-7-7-7-7-7-5-5-5-5-4-4-4-4-|
|----------------2-2-2-2-2-2-2-2-5-5-5-5-5-5-5-5-3-3-3-3-2-2-2-2-|
Someone save me if you will....blasphemy in my wasteland
SOLO
|--------------------------------17------17------17---------17-17-|
|--------------------------------17^(17)-15^(15)-17^(17)p15-17-17-|
|--7^----7^----7^--7-9-9^-9^-7-7----------------------------------|
|/9--9-/9--9-/9--9------------------------------------------------|
|-----------------------------------------------------------------|
|-----------------------------------------------------------------|
the solo speeds up here
|---7------------------7-10p7-10/12-10h12p10--10-----------------|
|--7-10p7---7---------7---------------------12-------------------|
|9^------10--10p9p7-9^--------------------------12/9p7-9^-9p7----|
|------------------------------------------------------------9p7-|
|----------------------------------------------------------------|
|----------------------------------------------------------------|
BRIDGE
|----------------------------------------------------------------|
|----------------------------------------------------------------|
|4-4-4-4-4-4-4-4-7-7-7-7-7-7-7-7---------------------------------|
|4-4-4-4-4-4-4-4-7-7-7-7-7-7-7-7-7-7-7-7-7-7-7-7-5-5-5-5-4-4-4-4-|play 3 
|2-2-2-2-2-2-2-2-5-5-5-5-5-5-5-5-7-7-7-7-7-7-7-7-5-5-5-5-4-4-4-4-|times
|--------------------------------5-5-5-5-5-5-5-5-3-3-3-3-2-2-2-2-|
Jump in the water.. my hardest question to answer is
|-------------------------------14--14--14--14--14--14--|
|-------------------------------17^-17^-17^-17^-17^-17^-|
|4-4-4-4-4-4-4--7-7-7-7-7-7-7---------------------------|
|4-4-4-4-4-4-4--7-7-7-7-7-7-7---------------------------|
|2-2-2-2-2-2-2--5-5-5-5-5-5-5---------------------------|
|-------------------------------------------------------|
 why                          why
CHORUS
|----------------------------------------------------------------|
|----------------------------------------------------------------|
|4-4-4-4-4-4-4-4-------------------------------------------------|
|4-4-4-4-4-4-4-4-4-4-4-4-4-4-4-4-7-7-7-7-7-7-7-7-5-5-5-5-4-4-4-4-|play twice
|2-2-2-2-2-2-2-2-4-4-4-4-4-4-4-4-7-7-7-7-7-7-7-7-5-5-5-5-4-4-4-4-|
|----------------2-2-2-2-2-2-2-2-5-5-5-5-5-5-5-5-3-3-3-3-2-2-2-2-|
Someone save me ..... blasphemy in my wasteland
OUTRO
|----------------------------------------------------------------|
|----------------------------------------------------------------|
|4-4-4-4-4-4-4-4-7-7-7-7-7-7-7-7---------------------------------|
|4-4-4-4-4-4-4-4-7-7-7-7-7-7-7-7-7-7-7-7-7-7-7-7-5-5-5-5-4-4-4-4-|
|2-2-2-2-2-2-2-2-5-5-5-5-5-5-5-5-7-7-7-7-7-7-7-7-5-5-5-5-4-4-4-4-|
|--------------------------------5-5-5-5-5-5-5-5-3-3-3-3-2-2-2-2-|
Someone save me, someone save me
|----------------------------------------------------------------|
|----------------------------------------------------------------|
|4-4-4-4-4-4-4-4-7-7-7-7-7-7-7-7-6-6-6-6-6-6-6-6-4-4-4-4-3-3-3-3-|
|x-x-x-x-x-x-x-x-x-x-x-x-x-x-x-x-x-x-x-x-x-x-x-x-x-x-x-x-x-x-x-x-|
|2-2-2-2-2-2-2-2-5-5-5-5-5-5-5-5-4-4-4-4-4-4-4-4-2-2-2-2-1-1-1-1-|
|----------------------------------------------------------------|
Somebody save me, somebody save me, please don't erase me
|--------------|
|--------------|
|4-4-4-4-4-4-4-|
|4-4-4-4-4-4-4-|
|2-2-2-2-2-2-2-|
|--------------|
-----------------------------------------------------------------------------GUITAR 2
-----------------------------------------------------------------------------
VERSE
|----------------------|
|----------------------|
|4-------------------4-|hold each note for 8 beats and rest for 8 more and 
|4-------------------4-|repeat
|2-------------------2-|
|----------------------|
well I got a candle..I live in a hallway with no doors and no rooms
tacet for the rest of the verse (don't play)
CHORUS
|----------------------------------------------------------------|
|----------------------------------------------------------------|
|----------------------------------------------------------------|play twice
|9-9-9-9-9-9-9-9-4-4-4-4-4-4-4-4-7-7-7-7-7-7-7-7-5-5-5-5-4-4-4-4-|
|----------------------------------------------------------------|
|----------------------------------------------------------------|
Someone save me........blasphemy in my wasteland
POST CHORUS
|---------------------------------|
|---------------------------------|
|4--------------------------------|
|4--------------------------------|
|2--------4----5-4---2------------|
|---------------------------------|
tacet (don't play)
CHORUS
|----------------------------------------------------------------|
|----------------------------------------------------------------|
|----------------------------------------------------------------|play twice
|9-9-9-9-9-9-9-9-4-4-4-4-4-4-4-4-7-7-7-7-7-7-7-7-5-5-5-5-4-4-4-4-|
|----------------------------------------------------------------|
|----------------------------------------------------------------|
SOLO
|----------------------------------------------------------------|
|----------------------------------------------------------------|
|4-4-4-4-4-4-4-4-------------------------------------------------|
|4-4-4-4-4-4-4-4-4-4-4-4-4-4-4-4-7-7-7-7-7-7-7-7-5-5-5-5-4-4-4-4-|play twice
|2-2-2-2-2-2-2-2-4-4-4-4-4-4-4-4-7-7-7-7-7-7-7-7-5-5-5-5-4-4-4-4-|
|----------------2-2-2-2-2-2-2-2-5-5-5-5-5-5-5-5-3-3-3-3-2-2-2-2-|
BRIDGE
tacet until...
|------------------------------------------|
|------------------------------------------|
|------------------------------------------|
|5h7-7-7-7-5h7-7-7-7-5h7-7-5-5-5-5-4-4-4-4-|
|5h7-7-7-7-5h7-7-7-7-5h7-7-5-5-5-5-4-4-4-4-|
|5-----5-5-----5-5-5-5---5-3-3-3-3-2-2-2-2-|
why
CHORUS
|----------------------------------------------------------------|
|----------------------------------------------------------------|
|----------------------------------------------------------------|
|9-9-9-9-9-9-9-9-4-4-4-4-4-4-4-4-7-7-7-7-7-7-7-7-5-5-5-5-4-4-4-4-|play twice
|----------------------------------------------------------------|
|----------------------------------------------------------------|
OUTRO
same as guitar 1 (this is optional)
-----------------------------------------------------------------------------
i try not to put a lot of guitar on part 2 becuz my second guitarest is also
my singer
^= bend
()= don't pluck note
p= pull off
x= mute
/= slide
h= hammer on
the song should be 99.9% correct =:D
[ Tab from: http://www.guitartabs.cc/tabs/s/shinedown/save_me_tab_ver_4.html ]