Shinedown - Save Me Chords & Tabs

 

Save Me Chords & Tabs

Shinedown Chords & Tabs

Version: 3 Type: Tab

Save Me Tab

============================================================================
Title: *Save Me*
Artist: Shinedown
Album: Us and Them
============================================================================
Track: -3-
============================================================================
Tuning: ( D#-A#-D#-G#-C-F ) {tune half a step up- long story }Nevermind the
                                                              string names  
Tablatured by Asa Gaston
============================================================================

INTRO

E:-----------------------------------\
B:---B-------------------------------\
G:---A---5h6p5----5h6p5--------------\
D:---S---------6--------6--8--7--8---\
A:---S---------------------------8---\
D:-------------------------------8---\

VERSE 1 

E:------------------------------------------\
B:------------------------------------------\
G:---5h6p5----------------5h6p5-------------\
D:---------6----8--7--8---------6----8--7---\
A:--------------------8---------------------\
D:--------------------8---------------------\

E:---13--9--11------13--9--11--------------------\
B:-----------------------------------------------\
G:-----------------------------------------------\
D:------------------------------8--11--6--4--3---\
A:------------------------------8--11--6--4--3---\
D:------------------------------8--11--6--4--3---\

CHORUS

E:-----------------------\
B:-----------------------\
G:-----------------------\
D:---8---3---6---4---3---\  2x
A:---8---3---6---4---3---\
D:---8---3---6---4---3---\

INTRO

E:-----------------------------------\
B:---B-------------------------------\
G:---A---5h6p5----5h6p5--------------\
D:---S---------6--------6--8--7--8---\
A:---S---------------------------8---\
D:-------------------------------8---\

VERSE 2

E:------------------------------------------\
B:------------------------------------------\
G:---5h6p5----------------5h6p5-------------\
D:---------6----8--7--8---------6----8--7---\
A:--------------------8---------------------\
D:--------------------8---------------------\

E:---13--9--11------13--9--11--------------------\
B:-----------------------------------------------\
G:-----------------------------------------------\
D:------------------------------8--11--6--4--3---\
A:------------------------------8--11--6--4--3---\
D:------------------------------8--11--6--4--3---\

CHORUS
[ Tab from: http://www.guitartabs.cc/tabs/s/shinedown/save_me_tab_ver_3.html ]
E:-----------------------\
B:-----------------------\
G:-----------------------\
D:---8---3---6---4---3---\  2x
A:---8---3---6---4---3---\
D:---8---3---6---4---3---\

SOLO

E:-----------------------------------------------\
B:-----------------------------------------------\
G:-----6-------6-------6---6--8--8h10--8--6--6---\
D:---8---8---8---8---8---8-----------------------\
A:-----------------------------------------------\
D:-----------------------------------------------\

E:---11h13--11---9h11--9---11h13p11--9--11--11---\
B:---11h13--11---9h11--9---11h13p11--9--11--11---\
G:-----------------------------------------------\
D:-----------------------------------------------\
A:-----------------------------------------------\
D:-----------------------------------------------\

E:-------------------------------------------------11--9--11---\
B:---6--9--11--9--------------------------11h14----------------\
G:----------------10--8--10--8---------------------------------\
D:------------------------------11--8--11----------------------\
A:-------------------------------------------------------------\
D:-------------------------------------------------------------\

E:---9h11p9-----------------------------------------\
B:----------11--9-----------------------------------\
G:-----------------10--8--6--8h10--8----------------\
D:------------------------------------11--8-----8---\
A:-------------------------------------------11-----\
D:--------------------------------------------------\

BRIDGE

E:--------------------\
B:--------------------\
G:--------------------\
D:---8--11--6--4--3---\   4x
A:---8--11--6--4--3---\
D:---8--11--6--4--3---\

CHORUS

E:-----------------------\
B:-----------------------\
G:-----------------------\
D:---8---3---6---4---3---\  2x
A:---8---3---6---4---3---\
D:---8---3---6---4---3---\

OUTRO

E:--------------------\              E:-------\
B:--------------------\              B:-------\
G:--------------------\              G:-------\
D:---8--11--6--4--3---\  2x  END ON  D:---8---\
A:---8--11--6--4--3---\              A:---8---\
D:---8--11--6--4--3---\              D:---8---\


NOTE: Very good song and very good guitar, if I might say
      so myself. This is absoluteley correct. I play with
      the song all the time, and not one part is off.
      Anyway, if you've only heard this from the radio,
      get thier "Us and Them" cd as fast as possible.
      You don;t lnow what you're missing. Anyway... ...ENJOY!!!

                                           -Asa