Shinedown - Save Me Chords & Tabs

 

Save Me Chords & Tabs

Shinedown Chords & Tabs

Version: 1 Type: Tab 0 ratings
1 star 2 stars 3 stars 4 stars 5 stars
comments

Save Me Tab

   
Band- Shinedown
Song- Save Me

b-bend
h-hammeron
p-pull off
s-slide
~-Whammy Bar/Vibrato

0:09
(Intro) riff 1 (play once)
E----------------------------------------||
B------------------------------------7---||
G------------------------------------7---||
D-11-12s-11--------11-12s-11----9-8--7---||
A-----------12---------------12----------||
E----------------------------------------||


0:19
Riff 2 X2
E----------------------||-----------------||
B----------------------||----------7------||
G----------------------||----------7------||
D-11-12s-11-------9-8--||----------7------||
A-----------12---------||-first time only-||
E----------------------||-----------------||

0:33
Riff 3 X1
E-------------------------------------------------------||
B-----------------------7-------------------------------||
G-----4-------4-------7--7------6-------6----7-6--------||
D---4---4---4--4----7-----7---6---6---6---6--7-6--------||
A-2-------2-------5---------4-------4--------5-4--------||
E-------------------------------------------------------||


0:41
Riff 4
E--------------------------------------------------------------------||
B--------------------------------------------------------------------||
G-4-4-4-4-4-4-4-4-7-7-7-7-7-7-7-7-6-6-6-6-6-6-6-6-4-4-4-4-3-3-3-3----||
D-4-4-4-4-4-4-4-4-7-7-7-7-7-7-7-7-6-6-6-6-6-6-6-6-4-4-4-4-3-3-3-3----||
A-2-2-2-2-2-2-2-2-5-5-5-5-5-5-5-5-4-4-4-4-4-4-4-4-2-2-2-2-1-1-1-1----||
E--------------------------------------------------------------------||


0:49
Riff 5 X2
E---------------------------------------------------------------------||
B---------------------------------------------------------------------||
G-4-4-4-4-4-4-4-4-----------------------------------------------------||
D-4-4-4-4-4-4-4-4-4-4-4-4-4-4-4-4-7-7-7-7-7-7-7-7-5-5-5-5-4-4-4-4-----||
A-2-2-2-2-2-2-2-2-4-4-4-4-4-4-4-4-7-7-7-7-7-7-7-7-5-5-5-5-4-4-4-4-----||
E-----------------2-2-2-2-2-2-2-2-5-5-5-5-5-5-5-5-3-3-3-3-2-2-2-2-----||



1:07
Riff same as intro riff 1 (X1)
E----------------------------------------||
B------------------------------------7---||
G------------------------------------7---||
D-11-12s-11--------11-12s-11----9-8--7---||
A-----------12---------------12----------||
E----------------------------------------||


1:17
Riff same as riff 2 (play X2)
E----------------------||-----------------||
B----------------------||----------7------||
G----------------------||----------7------||
D-11-12s-11-------9-8--||----------7------||
A-----------12---------||-first time only-||
E----------------------||-----------------||


1:31
Riff 6 (X1)
E------------------------------------------------------------------||
B------------------------------------------------------------------||
G-4-4-4-4-4-4-4-4-7-7-7-7-7-7-7-7----------------------------------||
D-4-4-4-4-4-4-4-4-7-7-7-7-7-7-7-7-7-7-7-7-7-7-7-7-5-5-5-4-4-4-4----||
A-2-2-2-2-2-2-2-2-5-5-5-5-5-5-5-5-7-7-7-7-7-7-7-7-5-5-5-4-4-4-4----||
E---------------------------------5-5-5-5-5-5-5-5-3-3-3-2-2-2-2----||
[ Tab from: http://www.guitartabs.cc/tabs/s/shinedown/save_me_tab.html ]
1:39
Riff like Riff 4 (X1)
E--------------------------------------------------------------------||
B--------------------------------------------------------------------||
G-4-4-4-4-4-4-4-4-7-7-7-7-7-7-7-7-6-6-6-6-6-6-6-6-4-4-4-4-3-3-3-3----||
D-4-4-4-4-4-4-4-4-7-7-7-7-7-7-7-7-6-6-6-6-6-6-6-6-4-4-4-4-3-3-3-3----||
A-2-2-2-2-2-2-2-2-5-5-5-5-5-5-5-5-4-4-4-4-4-4-4-4-2-2-2-2-1-1-1-1----||
E--------------------------------------------------------------------||


1:47
Riff like riff 5 (X2)
E---------------------------------------------------------------------||
B---------------------------------------------------------------------||
G-4-4-4-4-4-4-4-4-----------------------------------------------------||
D-4-4-4-4-4-4-4-4-4-4-4-4-4-4-4-4-7-7-7-7-7-7-7-7-5-5-5-5-4-4-4-4-----||
A-2-2-2-2-2-2-2-2-4-4-4-4-4-4-4-4-7-7-7-7-7-7-7-7-5-5-5-5-4-4-4-4-----||
E-----------------2-2-2-2-2-2-2-2-5-5-5-5-5-5-5-5-3-3-3-3-2-2-2-2-----||


2:04
Bridge for Solo
E---------------------------------------------------------------------||
B---------------------------------------------------------------------||
G-4-4-4-4-4-4-4-4-----------------------------------------------------||
D-4-4-4-4-4-4-4-4-4-4-4-4-4-4-4-4-7-7-7-7-7-7-7-7-5-5-5-5-4-4-4-4-----||
A-2-2-2-2-2-2-2-2-4-4-4-4-4-4-4-4-7-7-7-7-7-7-7-7-5-5-5-5-4-4-4-4-----||
E-----------------2-2-2-2-2-2-2-2-5-5-5-5-5-5-5-5-3-3-3-3-2-2-2-2-----||

Ill get the Solo later but im still working on it myself so sorry.... Ill get it soon
though.


2:45
Riff 7
E----------------------------------------------------------------||------------||
B----------------------------------------------------------------||-18b~~~~~~~~||
G-4-4-4-4-4-4-4----7-7-7-7-7-7-7---------------------------------||------------||
D-4-4-4-4-4-4-4----7-7-7-7-7-7-7--x-x-x-7-7-7-7-7-7-5-5-5-4-4-4--||-played--at-||
A-2-2-2-2-2-2-2----5-5-5-5-5-5-5--x-x-x-7-7-7-7-7-7-5-5-5-4-4-4--||-2:49-behind||
E---------------------------------x-x-x-5-5-5-5-5-5-3-3-3-2-2-2--||-Rhythem----||



2:54
Riff like riff 5 (X2)
E---------------------------------------------------------------------||
B---------------------------------------------------------------------||
G-4-4-4-4-4-4-4-4-----------------------------------------------------||
D-4-4-4-4-4-4-4-4-4-4-4-4-4-4-4-4-7-7-7-7-7-7-7-7-5-5-5-5-4-4-4-4-----||
A-2-2-2-2-2-2-2-2-4-4-4-4-4-4-4-4-7-7-7-7-7-7-7-7-5-5-5-5-4-4-4-4-----||
E-----------------2-2-2-2-2-2-2-2-5-5-5-5-5-5-5-5-3-3-3-3-2-2-2-2-----||


3:10                                                                   
Outro
Riff 6 (X2)                                                                
E--------------------------------------------------------------------||-After-youve-----||
B--------------------------------------------------------------------||-played-second-1-||
G-4-4-4-4-4-4-4-4-7-7-7-7-7-7-7-7------------------------------------||-----------------||
D-4-4-4-4-4-4-4-4-7-7-7-7-7-7-7-7-7-7-7-7-7-7-7-7-5-5-5-5-4-4-4-4----||-4-4-4-4-4-4-4---||
A-2-2-2-2-2-2-2-2-5-5-5-5-5-5-5-5-7-7-7-7-7-7-7-7-5-5-5-5-4-4-4-4----||-4-4-4-4-4-4-4---||
E---------------------------------5-5-5-5-5-5-5-5-3-3-3-3-2-2-2-2----||-2-2-2-2-2-2-2---||
Comments