Shinedown - Lost In The Crowd Chords & Tabs

 

Lost In The Crowd Chords & Tabs

Shinedown Chords & Tabs

Version: 2 Type: Tab 0 ratings
1 star 2 stars 3 stars 4 stars 5 stars
comments

Lost In The Crowd Tab

Shinedown - Lost in the Crowd (solo only)
tabber - IamJonsCranium

The last tab was good but lacked a solo.  for convenience, copy this tab, go to the 
tab, hit 'ctrl e' and it will let you edit the page.  paste this into the other tab and print.

following 'interlude'
e|-----------------------------------------------------------------------------------|
B|-----------------------------------------------------------------------------------|
G|-----------------10h12-14p12p10h12-10/12-------------------------------------------|
D|-/12-15p14p10-12-------------------------------------------------------------------|
A|-----------------------------------------------------------------------------------|
D|-----------------------------------------------------------------------------------|
[ Tab from: http://www.guitartabs.cc/tabs/s/shinedown/lost_in_the_crowd_tab_ver_2.html ]
e|---------------------------------------------------------------------------------|
B|-/15-18p15-13/15-18p17-15p13h15-/15p13-------------------------------------------|
G|---------------------------------------12b14-/14-14-17p14p12---------------------|
D|------------------------------------------------------------15p12-10/12-15p12--12|
A|-----------------------------------------------------------------------------15--|
D|---------------------------------------------------------------------------------|

i did the second section by memory, so i'm not sure if that last '10' is supposed to be 
or if im missing a note.  if im missing one, i'll change it later.  but overall it 
be very accurate.

/ with no number behind it means that you start sliding while you pick the note, so 
is no definite start.
Comments