Shinedown - Left Out Chords & Tabs

 

Left Out Chords & Tabs

Shinedown Chords & Tabs

Version: 2 Type: Tab 0 ratings
1 star 2 stars 3 stars 4 stars 5 stars
comments

Left Out Tab

   
-------------------------------------------------------------------------------
			     Left Out---Shinedown
-------------------------------------------------------------------------------
Tabbed by:PrimateForever9
Email:DTFSmackdown9@aol.com

Tuning:DADGBE

Intro/Verse
e|-11/10/11-------------11/10/11----------------11/10/11---------------------|
B|---------------------------------------------------------------------------|
G|---------------------------------------------------------------------------|
D|---------------------------------------------------------------------------|
A|---------------------------------------------------------------------------|
D|---------------------------------------------------------------------------|

Lead Guitar(chorus) "how does it feel..."
e|---------------------------------------------------------------------------|
B|---------------------------------------------------------------------------|
G|---------------------------------------------------------------------------|
D|-10---0---3/5/3-0---0-0-----10---0---3/5/3--3-3----------------------------|
A|-10---0---3/5/3-0---0-0-----10---0---3/5/3--3-3----------------------------|
D|-10---0---3/5/3-0---0-0-----10---0---3/5/3--3-3----------------------------|
[ Tab from: http://www.guitartabs.cc/tabs/s/shinedown/left_out_tab_ver_2.html ]
2nd Guitar
e|---------------------------------------------------------------------------|
B|---------------------------------------------------------------------------|
G|-7-10---7-10-14-15-14---7-10---7-10-14-15-17-15-14-------------------------|
D|---------------------------------------------------------------------------|
A|---------------------------------------------------------------------------|
D|---------------------------------------------------------------------------|

2nd Chorus
e|---------------------------------------------------------------------------|
B|---------------------------------------------------------------------------|
G|--5/7--333--5/7/10--5/7--333----5/7--10/7/10/7/5/7-------------------------|
D|--x/x--333--x/x/x---x/x--333----x/x---x/x/x/x/x/x--------------------------|
A|--3/5--333--3/5/8---3/5--333----3/5---8/5/8/5/3/5--------------------------|
D|---------------------------------------------------------------------------|
	this part varies, but use your ear ^^^^^^^
Bridge (play softly)
e|---------------------------------------------------------------------------|
B|---------------------------------------------------------------------------|
G|--7/5/10/5---------------------------------7/5/10---555--555--555----------|
D|--x/x/x/x----play X3-----------------------x/x/x----555--555--555----------|
A|--5/3/8/3----------------------------------5/3/8----555--555--555----------|
D|---------------------------------------------------------------------------|

Song Order:
Intro
Lead Guitar
Lead Guitar/2nd Guitar
Intro
Lead Guitar
2nd Chorus
Lead Guitar/2nd Guitar
Intro
Lead Guitar
2nd Chorus
Bridge
Lead Guitar
2nd Chorus

| /  slide
| h  hammer-on
| p  pull-off
| ~  vibrato
| +  harmonic
| x  Mute note


That's it. Shinedown is a pretty good band, have fun with this one, im sure theres 
somewhere, but that sounds pretty good to me. Email me with corrections.
Comments