Shinedown - Left Out Chords & Tabs

 

Left Out Chords & Tabs

Shinedown Chords & Tabs

Version: 1 Type: Tab 0 ratings
1 star 2 stars 3 stars 4 stars 5 stars
comments

Left Out Tab

I play this song in DADGBE

intro (with delay effect)Distorted
|-----------|
|--10h11p10-|
|-----------|
|-----------|
|-----------|
|-----------|

Riffer Distorted
|-------------------------|
|-------------------------|
|-/5----------------------|
|-/5--3p5h3-3--3--3--3h5--|
|-/3--3p5h3-3--3--3--3h5--|
|-----3p5h3-3--3--3--3h5--|

|---------------------------|
|---------------------------|
|-/5------------------------|
|-/5--3p5h3-3--3--3--3h5p3--|
|-/3--3p5h3-3--3--3--3h5p3--|
|-----3p5h3-3--3--3--3h5p3--|
[ Tab from: http://www.guitartabs.cc/tabs/s/shinedown/left_out_tab.html ]
Bridge
|--------------------------------------------------------------------------|
|--------------------------------------------------------------------------|
|-5/7-7-7-7----------------------------------------------------------------|
|------------5x5x5-3h5-----------------------------------------------------|
|-3/5-5-5-5--5x5x5-3h5-----------------------------------------------------|
|------------5x5x5-3h5-----------------------------------------------------|


|-----------------------------------------------------------------------|
|-----------------------------------------------------------------------|
|-5/7-7-7-7--9-9-9------------------------------------------------------|
|-----------------------------------------------------------------------|
|-3/5-5-5-5--7-7-7------------------------------------------------------|
|-----------------------------------------------------------------------|

and thats pretty much the hole song
Comments