Shinedown - Lacerated Chords & Tabs

 

Lacerated Chords & Tabs

Shinedown Chords & Tabs

Version: 1 Type: Tab 0 ratings
1 star 2 stars 3 stars 4 stars 5 stars
comments

Lacerated Tab

   
Band- Shinedown
Song- Lacerated

Tuning: Drop D (D A D G B E)

what a fun song

intro/verse
E|------------------------------------------------||
B|------------------------------------------------||
G|------------------------------------------------||
D|-----4-----4-----5-----5-----5------------------||
A|---5-----5-----6-----6-----6---repeat-----------||
D|-0-----0-----7-----7-----7----------------------||
[ Tab from: http://www.guitartabs.cc/tabs/s/shinedown/lacerated_tab.html ]
prechorus
E|--------------------------------------------------------||
B|--------------------------------------------------------||
G|--------------------------------------------------------||
D|-0-00-0-00-1-11-1-11-1---repeat-------------------------||
A|-0-00-0-00-1-11-1-11-1----------------------------------||
D|-0-00-0-00-1-11-1-11-1----------------------------------||
     **   **   **   **
chorus
E|--------------------------------------------------------||
B|--------------------------------------------------------||
G|--------------------------------------------------------||
D|-3-x-3-3-5-3-0-1-x-1-1-3-1-0--0-0-00-1-11---------------||
A|-3-x-3-3-5-3-0-1-x-1-1-3-1-0--0-0-00-1-11---------------||
D|-3-x-3-3-5-3-0-1-x-1-1-3-1-0--0-0-00-1-11---------------||

bridge
E|--------------------------------------------------------||
B|--------------------------------------------------------||
G|--------------------------------------------------------||
D|-0-3-5-5-3-0-3-0-0-0-0----------------------------------||
A|-0-3-5-5-3-0-3-0-0-0-0----------------------------------||
D|-0-3-5-5-3-0-3-0-0-0-0----------------------------------||
Comments