Shinedown - If You Only Knew Chords & Tabs

 

Shinedown Chords & Tabs

Version: 1 Type: Bass Tab 0 ratings
1 star 2 stars 3 stars 4 stars 5 stars
comments

If You Only Knew Bass Tab

First Tab I've ever made, it sounds right to me. I didn't make the EXACT length
of the notes, but if you listen hard enough you should be able to figure that out fine. 
you
just add a bit of space between the notes and you should be good to go.

Key:
/,\=slide (ex. 3/5)
h=hammer on (ex. 3h5)

Wait for the verse
G-------------------------------------------------------------------|
D-----------------3---3------------------3---3----------------------|
A--0-0-0---0-0-0----3---3--0-0-0---0-0-0---3---3/-------------------|
E--------3-----------------------3----------------------------------|
Pre-Chorus: "I still hold on to..."
G-------------------------------------------------------------------|
D-------------------------------------------------------------------|
A---5-5-5-3-5-5-5-5/10-10-10-10-10-10\------------------------------|
E-------------------------------------------------------------------|
Chorus: "It's 4:03..." by the 5's he should be singing "The only thing..."
G-------------------------------------------------------------------|
D---------------------------------------------5-5-5-----------------|
A---3-3-3-2-2-2-0-0-0-------3-3-3-2-2-2-0-0-0-----------------------|
E---------------------3-3-3-----------------------------------------|
"Believe in is you, if you only knew"
G----------------------------------------------------------------------|
D----------------------------------------------------------------------|
A---3-2-0----3-2-0-0-0-3-0-3-5-5-5-5-5-5-5-0-0-0-3-0-3-5-5-5-5-5-5-5-5-|
E-1--------1-----------------------------------------------------------|
          At the "A00030355555555", you're in Verse 2
G---------------------------------------------------------------------------|
D--3-3---------------------------------3--3---------------------------------|
A---3-3/5-0003035555555-00030355555555--3--3--00030355555555-00030355555555-|
E---------------------------------------------------------------------------|
[ Tab from: http://www.guitartabs.cc/tabs/s/shinedown/if_you_only_knew_btab.html ]
G-------------------------------------------------------------------|
D-3---3-------------------------------------------------------------|
A---3---3h5-5-5-5-3-5-5-5/10-10-10-10-10-10-3-3-3-2-2-2-0-0-0-------|
E-------------------------------------------------------------3-3-3-|
This is where the bass "fills" would start
G--------------------------------------------------------------------|
D--------------------5-5-5-----------------577777777777-577777777777-|
A--3-3-3-2-2-2-0-0-0----------3-2-0---3-2----------------------------|
E---------------------------1-------1--------------------------------|

G----------------------5------------7-5-----------------------------|
D-3--3---5-7-7-7-7-5-7--7-5-7-7-7-7-----7-5-3-2-3--3----------------|
A---3--3------------------------------------------3--3/5------------|
E-------------------------------------------------------------------|
Quiet Part...                   See * at bottom of tab
G-------------------------------------------------------------------|
D---------------------------------------55555*----------------------|
A-5/-------10\-----3--2--0------------------------------------------|
E----------------------------3-3-3-3-3------------------------------|
Chorus/Outro
G-------------------------------------------------------------------|
D--------------------------------------------5-5-5------------------|
A--3-3-3-2-2-2-0-0-0-------3-3-3-2-2-2-0-0-0-----------3-2-0--------|
E--------------------3-3-3---------------------------1--------------|

G---------------------------------------------------------------------|
D---------------------------------------------------------------------|
A---3-2-0-0-0-0---------3-2-0-----------------------------------------|
E-1-------------------1-----------------------------------------------|

This Should be the end, i may have skipped some parts that are repeated accidently, like
part of the outro or one of the Chorus-Verse transitions. Rate, Comment, and don't be
upset about it if it's wrong.I'll post a youtube video of it soon, my name is pizzamanscreator.

*I added the octave notes because I think it sounds better if the octave notes are 
fast enough.
Comments