Shinedown - I Dare You Chords & Tabs

 

I Dare You Chords & Tabs

Shinedown Chords & Tabs

Version: 1 Type: Tab 0 ratings
1 star 2 stars 3 stars 4 stars 5 stars
comments

I Dare You Tab

   
Tabbed By: Quinton (TRU)
Help from: Zach (tremonti9482)


This is the most perfect tab as far as percision, but as far as note we pretty much
got it on key, It's played in Half a step down the fills are missing , like I said,
we just wanted to give you the idea and you can build the rest yourself, make yourself
better at playing so to speak, and plus..... I'm about to damn lazy to tab it, time I
could be spending playign the guitar, anyways I'll shut the hell up and you guys and
get to trying this tab out, Laidher
          Quinton & Zach

Half step down

Intro
e-----------------------------------------------------|
b-----------------------------------------------------|
g---------6-6-6--9-9--6-6---6-6-6---------------------|
d-7-7-7---7-7-7--7-7--7-7---7-7-7--9-9-/-11-11--------|
a-0-0-0---0-0-0--0-0--0-0---9-9-9--0-0-/-0--0---------|
e-----------------------------------------------------|


Prechorus
[ Tab from: http://www.guitartabs.cc/tabs/s/shinedown/i_dare_you_tab.html ]
e--------------------------------------------------|
b--------------------------------------------------|
g--9-9-/--11--11--\--7-\-6-/-7-\-6-----------------|
d--9-9-/--11--11--\--7-\-6-/-7-\-6-----------------|
a--7-7-/--9---9---\--5-\-4-/-5-\-4-----------------|
e--------------------------------------------------|

Chorus

e--------------------]----------------------|
b--------------------]----------------------|
g-------6-6-/-7-7----]-------6-6-/-7-7------|
d--7-7--6-6-/-7-7----]--7-7--6-6-/-7-7------|
a--7-7--4-4-/-5-5----]--7-7--4-4-/-5-5------|
e--5-5---------------]--5-5-----------------|

Bridge/lead break

e-----------------------------------------------------|
b-----------------------------------------------------|
G-9-9-11-11-13-13-14-14-16-16-18-18-19-19-18-18-16-16-|
d-----------------------------------------------------|
a-----------------------------------------------------|
e-----------------------------------------------------|

e--------------------------------------|
b--------------------------------------|
G-18-18-19-19-18-18-b^18r-16--16h18\14-|
d--------------------------------------|
a--------------------------------------|
e--------------------------------------|

e--------------------------------------------------|
b--------------------------------------------------|
G-9-9-11-11-13-13-14-14-16-16-18-18-19-19-21-21----|
d--------------------------------------------------|
a--------------------------------------------------|
e--------------------------------------------------|
Comments