Shinedown - Heroes Chords & Tabs

 

Heroes Chords & Tabs

Shinedown Chords & Tabs

Version: 3 Type: Tab

Heroes Tab

   
Shinedown
Heroes
Transcribed by Ken Visger
drivex3@yahoo.com


/  slide up
\  slide down
h  hammer on
p  pull off
b  bend up
r  release
a.h.   artificial harmonic
p.h.   pinch harmonic
p.m.   palm mute
~   Vibrato


DADBGE (drop-D)

starts with distorted bass, for reference I have included the bass riff
------------------------------------------------------------------|
------------------------------------------------------------------|
----7h8---7p5---3h5---7p5---3h5~-----7h8---7p5---3h5--------------|
--0-----0-----0-----0-----0--------0-----0-----0-----0-3-5-5---3--|
                                                          (b&r)


Guitar
-------------------------------------------------------------------|
-------------------------------------------------------------------|
-------------------------------------------------------------------|
--------------------------------------------------------3-5-5---3--|
-------------------------------------------------------------------|
-------------------------------------------------------------------|
                                                           (b&r)

-------------------------------------------------------------------|
-------------------------------------------------------------------|
-------------------------------------------------------------------|
--------------------------------------------------------3-5-5---3--|
----3h5---3h5---3h5---3h5----3-5-----3h5---3h5---3h5---------------|
--0-----0-----0-----0-----0--------0-----0-----0-----0-------------|
                                                           (b&r)

-------------------------------------------------------------------|
-------------------------------------------------------------------|
-------------------------------------------------------------------|
--------------------------------------------------------3-5-5---3--|
----3h5---3h5---3h5---3h5----3-5-----3h5---3h5---3h5---------------|
--0-----0-----0-----0-----0--------0-----0-----0-----0-------------|
                                                           (b&r)

-------------------------------------------------------------------|
-------------------------------------------------------------------|
-------------------------------------------------------------------|
-------------------------------------------------------------------|
----3h5---3h5---3h5---3h5----3-5-----3h5---3h5---3h5---------------|
--0-----0-----0-----0-----0--------0-----0-----0-----0--3-5-5---3--|
                                                           (b&r)

-------------------------------------------------------------------|
-------------------------------------------------------------------|
-------------------------------------------------------------------|
------7-7-6------5---3-3-3-3------------7-7-6------5---------------|
--0---5-5-5------3---1-1-1-1--------0---5-5-5------3---------------|
--0--------------------------0-3h5--0-----------------0-3-5-5---3--|
                                                           (b&r)


-------------------------------------------------------------------|
-------------------------------------------------------------------|
-------------------------------------------------------------------|
--------------------------------------------------------3-5-5---3--|
----3h5---3h5---3h5---3h5----3-5-----3h5---3h5---3h5---------------|
--0-----0-----0-----0-----0--------0-----0-----0-----0-------------|
                                                           (b&r)

-------------------------------------------------------------------|
-------------------------------------------------------------------|
-------------------------------------------------------------------|
-------------------------------------------------------------------|
----3h5---3h5---3h5---3h5----3-5-----3h5---3h5---3h5---------------|
--0-----0-----0-----0-----0--------0-----0-----0-----0--3-5-5---3--|
                                                           (b&r)


----------------------------------------------------------------------------|
-----------------------------------------------------------------1010101010-|
------------------------------------------------------101010-9--------------|
-/7-7-7-7---5--------------------------/7-7-7-7---5--------------7--7-7-7-7-|
-/5-5-5-5-x-3--------3h5-5-5-5-3---3-3-/5-5-5-5-x-3---8-8-8--7--------------|
----------x----------3h5-5-5-5-3---3-3----------x---------------------------|


----------------------------------------------------------------------------|
----------------------------------------------------------------------------|
----------------------------------------------------------------------------|
--7-7-7-7---6------5-5-5-5---3-------7-7-7-7---6----------------------------|
--5-5-5-5---5------3-3-3-3---1-------5-5-5-5---5---3--3--3-3-5--5-5-5-5-----|
----------x----------------------------------x-----3--3--3-3-5--5-5-5-5-----|

----------------------------------------------------------------------------|
----------------------------------------------------------------------------|
----------------------------------------------------------------------------|
--7-7-7-7---6------5-5-5-5---3----------3--3-3-3-3-3---3-5-5-5-5-6-6-6-6----|
--5-5-5-5---5------3-3-3-3---1----------1--1-1-1-1-1---1-3-3-3-3-4-4-4-4----|
----------x-------------------------x-x-------------------------------------|

-------------------------------------------|
-------------------------------------------|
-------------------------------------------|
---------------------------------3---------|
----3h5---3h5---3h5---3h5----3-5-----------|
--0-----0-----0-----0-----0----------------|
[ Tab from: http://www.guitartabs.cc/tabs/s/shinedown/heroes_tab_ver_3.html ]
-------------------------------------------------------------------|
-------------------------------------------------------------------|
-------------------------------------------------------------------|
----------5-------4--3-3-3-3----------------5-------4--------------|
--0---8~\-3-7~\---2--1-1-1-1--------0---8~\-3-7~\---2--------------|
--0--------------------------0-3h5--0-----------------0-3-5-5---3--|
                                                           (b&r)


-------------------------------------------------------------------|
-------------------------------------------------------------------|
-------------------------------------------------------------------|
--------------------------------------------------------3-5-5---3--|
----3h5---3h5---3h5---3h5----3-5-----3h5---3h5---3h5---------------|
--0-----0-----0-----0-----0--------0-----0-----0-----0-------------|
                                                           (b&r)

-------------------------------------------------------------------|
-------------------------------------------------------------------|
-------------------------------------------------------------------|
-------------------------------------------------------------------|
----3h5---3h5---3h5---3h5----3-5-----3h5---3h5---3h5---------------|
--0-----0-----0-----0-----0--------0-----0-----0-----0--3-5-5---3--|
                                                           (b&r)


----------------------------------------------------------------------------|
-----------------------------------------------------------------1010101010-|
------------------------------------------------------101010-9--------------|
-/7-7-7-7---5--------------------------/7-7-7-7---5--------------7--7-7-7-7-|
-/5-5-5-5-x-3--------3h5-5-5-5-3---3-3-/5-5-5-5-x-3---8-8-8--7--------------|
----------x----------3h5-5-5-5-3---3-3----------x---------------------------|

----------------------------------------------------------------------------|
----------------------------------------------------------------------------|
----------------------------------------------------------------------------|
--7-7-7-7---6------5-5-5-5---3-------7-7-7-7---6----------------------------|
--5-5-5-5---5------3-3-3-3---1-------5-5-5-5---5---3--3--3-3-5--5-5-5-5-----|
----------x----------------------------------x-----3--3--3-3-5--5-5-5-5-----|

----------------------------------------------------------------------------|
----------------------------------------------------------------------------|
----------------------------------------------------------------------------|
--7-7-7-7---6------5-5-5-5---3----------3--3-3-3-3-3---3-5-5-5-5-6-6-6-6----|
--5-5-5-5---5------3-3-3-3---1----------1--1-1-1-1-1---1-3-3-3-3-4-4-4-4----|
----------x-------------------------x-x-------------------------------------|


----------------------------------------------------------------------------|
----------------------------------------------------------------------------|
----------------------------------------------------------------------------|
------0---------------------------------------------------------------------|
--0-0--------3-3-3-3-3-x-0-----------3-x-3-x-5------------3-x-3-x-0---------|
--0-0--------3-3-3-3-3-x-0-----------3-x-3-x-5------------3-x-3-x-0---------|


----------------------------------------------------------------------------|
----------------------------------------------------------------------------|
----------------------------------------------------------------------------|
------5-------3-----------------------------------------3-3-3-3---3-3-3-----|
----5---5---3---3---3-3-3-3-3-x-0--------3-x-3-x-5------1-1-1-1---1-1-1-----|
--5-------3---------3-3-3-3-3-x-0--------3-x-3-x-5--------------------------|


----------------------------------------------------------------------------|
----------------------------------------------------------------------------|
----------------------------------------------------------------------------|
--5-5-5-5---5-5-5/6-6-------------------------------------------------------|
--3-3-3-3---3-3-3/4-4-------------------------------------------------------|
----------------------------------------------------------------------------|

----------------------------------------------------------------------------|
----------------------------------------------------------------------------|
----------------------------------------------------------------------------|
--7-7-7-7---6------5-5-5-5---3-------7-7-7-7---6----------------------------|
--5-5-5-5---5------3-3-3-3---1-------5-5-5-5---5---3--3--3-3-5--5-5-5-5-----|
----------x----------------------------------x-----3--3--3-3-5--5-5-5-5-----|

----------------------------------------------------------------------------|
----------------------------------------------------------------------------|
----------------------------------------------------------------------------|
--7-7-7-7---6------5-5-5-5---3----------3--3-3-3-3-3---3-5-5-5-5-6-6-6-6----|
--5-5-5-5---5------3-3-3-3---1----------1--1-1-1-1-1---1-3-3-3-3-4-4-4-4----|
----------x-------------------------x-x-------------------------------------|


-------------------------------------------------------------------|
-------------------------------------------------------------------|
-------------------------------------------------------------------|
--------------------------------------------------------3-5-5---3--|
----3h5---3h5---3h5---3h5----3-5-----3h5---3h5---3h5---------------|
--0-----0-----0-----0-----0--------0-----0-----0-----0-------------|
                                                           (b&r)

-------------------------------------------------------------------|
-------------------------------------------------------------------|
-------------------------------------------------------------------|
-------------------------------------------------------------------|
----3h5---3h5---3h5---3h5----3-5-----3h5---3h5---3h5---------------|
--0-----0-----0-----0-----0--------0-----0-----0-----0--3-5-5---3--|
                                                           (b&r)