Shinedown - Fortyfive Chords & Tabs

 

Fortyfive Chords & Tabs

Shinedown Chords & Tabs

Version: 1 Type: Tab 1 rating
1 star 2 stars 3 stars 4 stars 5 stars
comments

Fortyfive Tab

Shinedown
45
Standard Tuning
I couldnt find it on here soi tabbed it for ya, its easy and fun :-P

Intro:
e----------------------------------------------------------
B------------------------------------------------------3----
G--------0---------2--------0-------0-----0--------0-----2--------
D-----2---------0--------0--------0-----0-------0----------0------
A-------------------------------3-----3------3----------------
E--0---------2--------3---------------------------------------
[ Tab from: http://www.guitartabs.cc/tabs/s/shinedown/fortyfive_tab.html ]
Verse(X3)
e----------------------------------------------------------
B---------------------------------------------------------------
G--------0---------2--------0--0h2p0------------0-----0--------0-------------
D-----2---------0--------0-----------4-0------0-----0-------4----------------
A-------------------------------------------3-----3------3----------------
E--0---------2--------3---------------------------------------

Prechorus
Prechorus:
e|---0---0---0---0---0---0---------------
B|---1---1---0---0---1---1---------------
G|---2---2---0---0---2---2---------------
D|---2---2---2---2---2---2---5---4---2---
A|---0---0---2---2---0---0---5---4---2---
E|-----------0---0-----------3---2---0---

Chorus
e|---------------------------------------
B|---------------------------------------
G|---------7---5---5-------------7---5---
D|-------2---7---5---5-------2---7---5---
A|-------2---5---3---3-------2---5---3---
E|---3-2-0---------------3-2-0-----------		
Comments