Shinedown - Fly From The Inside Chords & Tabs

 

Fly From The Inside Chords & Tabs

Shinedown Chords & Tabs

Version: 3 Type: Tab 0 ratings
1 star 2 stars 3 stars 4 stars 5 stars
comments

Fly From The Inside Tab

Shinedown - Fly From the Inside
Tabbed by - thunderstorm125@hotmail.com  A.K.A "drummaster"
Tuning - DADGBE
-----------------------------------------------------------------------------
I'm pretty sure about this tab is almost 98% correct. This my first tab,
i'm a drummer and somewhat i play guitar. Listen to song for exact rythim.
If you think this tab isn't correct, tab it yourself.
-----------------------------------------------------------------------------
Riff 1

E-----------------------------------------------------------------
B-----------------------------------------------------------------
G----11--11-/-12---12---12---12-/--14---14------------------------
D----11--11-/-12---12---12---12-/--14---14---8-8-8-8-8-7-7-7-7-7-3
A-----9---9-/-10---10---10---10-/--12---12---8-8-8-8-8-7-7-7-7-7-3
D--------------------------------------------8-8-8-8-8-7-7-7-7-7-3

   
Riff 2 (Distorted)

E------------------------------------
B------------------------------------
G------------------------------------
D-----0-0-8-7-3-0-3-5-0-0-8-7-3-0-3-3
A-----0-0-8-7-3-0-3-5-0-0-8-7-3-0-3-3
D-----0-0-8-7-3-0-3-5-0-0-8-7-3-0-3-3


Verse (Clean)
[ Tab from: http://www.guitartabs.cc/tabs/s/shinedown/fly_from_the_inside_tab_ver_3.html ]
E------------------------------------
B------------------------------------
G-----4-4-4-4-4-4-4-4-5-5-5-5-5-5-5-5
D-----4-4-4-4-4-4-4-4-5-5-5-5-5-5-5-5
A-----2-2-2-2-2-2-2-2-3-3-3-3-3-3-3-3
D-----2-2-2-2-2-2-2-2-3-3-3-3-3-3-3-3


Pre-Chorus (Distorted)

E----------------------------------------------------------------------
B----------------------------------------------------------------------
G----------------------------------------------------------------------
D---5-5-5-5-5-5-5-5-8-8-8-8-8-8-8-8-5-5-5-5-5-5-5-5-8-8-8-8-10-10-10-10
A---5-5-5-5-5-5-5-5-8-8-8-8-8-8-8-8-5-5-5-5-5-5-5-5-8-8-8-8-10-10-10-10
D---5-5-5-5-5-5-5-5-8-8-8-8-8-8-8-8-5-5-5-5-5-5-5-5-8-8-8-8-10-10-10-10


Chorus (Distorted)

E--------------------------------------------------------------------
B--------------------------------------------------------------------
G-------------------------------------3-3-3-3-3-3-3-3----------------
D---0-0-12-12-0-0-0-0-3-3-3-3-3-3-3-3-5-5-5-5-5-5-5-5-5-5-5-5-5-5-5-5
A---0-0-12-12-0-0-0-0-3-3-3-3-3-3-3-3-5-5-5-5-5-5-5-5-5-5-5-5-5-5-5-5
D---0-0-12-12-0-0-0-0-3-3-3-3-3-3-3-3-----------------5-5-5-5-5-5-5-5


Bridge (Distorted)

E----------------------------------
B----------------------------------
G----------------------------------
D---0-0-15-15-0-0-15-15-15-15-15-15
A---0-0-15-15-0-0-15-15-15-15-15-15
D---0-0-15-15-0-0-15-15-15-15-15-15


Song Order:

Riff 1      x4
Riff 2      x4
Verse       x4
Pre-Chorus  x1
Chorus      x2
Riff 2      x2
Verse       x4
Pre-Chorus  x1
Chorus      x2
Bridge      x8
Riff 1      x2
Chorus      x4
Riff 2      x
Comments