Shinedown - Fly From The Inside Chords & Tabs

 

Fly From The Inside Chords & Tabs

Shinedown Chords & Tabs

Version: 1 Type: Bass Tab 0 ratings
1 star 2 stars 3 stars 4 stars 5 stars
comments

Fly From The Inside Bass Tab

   
Artist: Shinedown
Song: Fly from the inside
Tuning D A D G
___________________________________
Intro 1/Bridge:
G|-------------------------|
D|-------------------------|
A|-------------------------|
D|---8~---7~-----3~--------|

Intro Part 2: 
G|-----------------------------|
D|-----------------------------|
A|-----------------------------|
D|-0-8-7-3-3-5----0-8-7-3-x-3--|

Verse:
G|-------------------------|
D|-------------------------|
A|-------------------------|
D|-2---2~------3----3~-----|
	repeat lots of times
[ Tab from: http://www.guitartabs.cc/tabs/s/shinedown/fly_from_the_inside_btab.html ]
Pre Chorus:
G|-----------------------------------------------------------|
D|-----------------------------------------------------------|
A|-----------------------------------------------------------|
D|-5555555555--888888888----555555555---88888-10101010101010-|
 
Chorus:
(distortion)
G|--------------------------------------------------------|
D|--------------------------------------------------------|
A|--------------------------------------------------------|
D|-0000000000--8888888888--3333333333-101010101010101010--|

Breakdown:
G|-------------------------------|
D|---3---3------------3---3---3--|
A|-------------------------------|
D|-0---0---xxxx-----0---0---x----|
Comments