Shinedown - Burning Bright Chords & Tabs

 

Burning Bright Chords & Tabs

Shinedown Chords & Tabs

Version: 4 Type: Tab 0 ratings
1 star 2 stars 3 stars 4 stars 5 stars
comments

Burning Bright Tab

   
-------------------------------------------------------------------------------
			     Burning Bright  Shinedown
				Tabbed By: Ibanez3454
-------------------------------------------------------------------------------
Tabbed by:
Email:

Tuning:

Intro and Verse
e|--------------------------------------------------------------------------|
B|--------------------------------------------------------------------------|
G|--------------------------------------------------------------------------|
D|11-11-11-11(bend)/-9-9-9-/-7-7------4-5-4---------------------------------|
A|-9--9--9--9------/-7-7-7-/-5-5----5-------5-------------------------------|
D|-9--9--9--9------/-7-7-7-/-5-5--5------------(Repeat)---------------------|
[ Tab from: http://www.guitartabs.cc/tabs/s/shinedown/burning_bright_tab_ver_4.html ]
e|--------------------------------------------------------------------------|
B|--------------------------------------------------------------------------|
G|--------------------------------------------------------------------------|
D|-3-33h5-3--5--3-3-3-3h5-5-5----------------------------------------------|
A|-3-3-3h5-3--5--3-3-3-3h5-5-5----------------------------------------------|
D|-3-3-3h5-3--5--3-3-3-3h5-5-5----------------------------------------------|

Chorus
e|--------------------------------------------------------------------------|
B|--------------------------------------------------------------------------|
G|-4---7---2---9------------------------------------------------------------|
D|-4---7---2---9------------------------------------------------------------|
A|-2---5---0---7------------------------------------------------------------|
D|-2---5---0---7(Repeat)---------------------------------------------------|

| /  slide up
| \  slide down
| h  hammer-on
| p  pull-off
| ~  vibrato
| +  harmonic
| x  Mute note
===============================================================================

Comments