Shinedown - Burning Bright Chords & Tabs

 

Burning Bright Chords & Tabs

Shinedown Chords & Tabs

Version: 3 Type: Tab 0 ratings
1 star 2 stars 3 stars 4 stars 5 stars
comments

Burning Bright Tab

Tabbed by: sparkadelic
Email:

Tuning: Drop D
Verse:
   I feel like . . .          Now and then . . .
e|--------------------------------------------------------------------------|
B|--------------------------------------------------------------------------|
G|-11--11br-9---7--------------5--------------------------------------------|
D|-11--11br-9---7--------------5------3h5--33h5--33h5--55--3----------------|
A|--9---9---7---5--------------3------3h5--33h5--33h5--55--3----------------|
D|--9---9---7---5--------------3------3h5--33h5--33h5--55--3----------------|
[ Tab from: http://www.guitartabs.cc/tabs/s/shinedown/burning_bright_tab_ver_3.html ]
2nd guitar play this over the verse riff
e|--------------------------------------------------------------------------|
B|--------------------------------------------------------------------------|
G|---11h12-11--------11h12-11---7/9-4---------------------------------------|
D|--------------------------------------------------------------------------|
A|--------------------------------------------------------------------------|
D|--------------------------------------------------------------------------|


Chorus:
e|--------------------------------------------------------------------------|
B|--------------------------------------------------------------------------|
G|--4-----7-----2-----9-----4-----7-----2-----------------------------------|
D|--4-----7-----2-----9-----4-----7-----2-----8-----------------------------|
A|--2-----5-----0-----7-----2-----5-----0-----9-----------------------------|
D|--2-----5-----0-----7-----2-----5-----0-----8-----------------------------|

Bridge same chords as verse, just listen to the song.  The second version I think is a
little off on the little 2nd guitar fill.  This song is straight forward, and this is
basically the same thing I posted last time.  I just wanted to make sure I got the fill
in this time, and did it the right way.
Comments