Shinedown - Burning Bright Chords & Tabs

 

Burning Bright Chords & Tabs

Shinedown Chords & Tabs

Version: 1 Type: Tab 0 ratings
1 star 2 stars 3 stars 4 stars 5 stars
comments

Burning Bright Tab

   
-----------------------------------------------------------------------------
			     Burning Bright- Shinedown                      
-----------------------------------------------------------------------------
Tabbed by: sparkadelic
Email:

Tuning: Drop D
Verse:
   I feel like . . .          Now and then . . .
e|--------------------------------------------------------------------------|
B|--------------------------------------------------------------------------|
G|-11--11br-9---7--------------5--------------------------------------------|
D|-11--11br-9---7--------------5------3h5--33h5--33h5--55--3----------------|
A|--9---9---7---5--------------3------3h5--33h5--33h5--55--3----------------|
D|--9---9---7---5--------------3------3h5--33h5--33h5--55--3----------------|
[ Tab from: http://www.guitartabs.cc/tabs/s/shinedown/burning_bright_tab.html ]
Chorus:
e|--------------------------------------------------------------------------|
B|--------------------------------------------------------------------------|
G|--4-----7-----2-----9-----4-----7-----2-----------------------------------|
D|--4-----7-----2-----9-----4-----7-----2-----8-----------------------------|
A|--2-----5-----0-----7-----2-----5-----0-----9-----------------------------|
D|--2-----5-----0-----7-----2-----5-----0-----8-----------------------------|

Bridge same chords as verse, just listen to the song.  It's an awesome song,
post better versions if you would.  Listen to the song and you will figure
out the durations for the finger patterns.  Long live Shinedown!


| /  slide up
| \  slide down
| h  hammer-on
| p  pull-off
| ~  vibrato
| +  harmonic
| x  Mute note
===============================================================================
Comments