Shinedown - Better Version Chords & Tabs

 

Better Version Chords & Tabs

Shinedown Chords & Tabs

Version: 1 Type: Bass Tab 0 ratings
1 star 2 stars 3 stars 4 stars 5 stars
comments

Better Version Bass Tab

   
Song: Better version (bass)
Submitted by: LNKNPRK15
Standard Tuning

Shinedown rox!! Some parts of this song I'm not so sure of ,but it sounds good while 
with the song. This song Rox!

No bass till 0:11
Intro
0:11
G--------------------|
D----4-2-00---4-2-44-|
A2---------2--------|
E--------------------|x4

Verse
0:31
G-------------------|
D-------------------|
A-2255522---------|
E-----------333-----|x4

PreChorus
0:53
G------------------|
D------------------|
A-2-2-1-0-2-2-1-0--|    I didn't quite get the prechorus to be
E------------------|x2  what I wanted so any correction would help.

Chorus
1:04
G--------------------------------------------|
D---------------------9p7-7-7-9--------------|
A-2-999---10-9-52-99----9-9----2-999-10-9-5-|
E--------------------------------------------|
[ Tab from: http://www.guitartabs.cc/tabs/s/shinedown/better_version_btab.html ]
Verse2
1:26
G-------------------|
D-------------------|
A-2255522---------|
E-----------333-----|x4

PreChorus
1:47
G------------------|
D------------------|
A-2-2-1-0-2-2-1-0--|
E------------------|x2

Chorus
1:58
G--------------------------------------------|
D---------------------9p7-7-7-9--------------|
A-2-999---10-9-52-99----9-9----2-999-10-9-5-|
E--------------------------------------------|

Bridge
2:20
G-------------------|
D-------------------|
A-2-2/4-4-2-2-7/4-2-|
E-------------------|x4

There's no bass from 2:41-2:52

Chorus
2:53
G--------------------------------------------|
D---------------------9p7-7-7-9--------------|
A-2-999---10-9-52-99----9-9----2-999-10-9-5-|
E--------------------------------------------|x2

SHINEDOWN ROCKS oh,yeah by the way thisis my first tab!
Comments