Shinedown - Atmosphere Chords & Tabs

 

Atmosphere Chords & Tabs

Shinedown Chords & Tabs

Version: 2 Type: Tab

Atmosphere Tab

   
============================================================================
Title: *Atmosphere*
Artist: Shinedown
Album: Us and Them
============================================================================
Track: -11-
============================================================================
Label: Atlantic Records
Tablatured by Asa Gaston
============================================================================
Tuning: Drop-D ( D-A-D-G-B-E )
============================================================================

INTRO

E:-----------------------------------------------------------\
B:--------------------9p6-------------------------9p6--------\
G:-------------------------8p5-------------------------8p5---\
D:-----------------------------------------------------------\
A:-------------8--6------------------------8--6--------------\
D:---3--8--10--------------------3--8--10--------------------\

E:-----------------------------------------------------------\
B:--------------------9p6-------------------------9p6--------\
G:-------------------------8p5-------------------------8p5---\
D:-----------------------------------------------------------\
A:-------------8--6------------------------8--6--------------\
D:---3--8--10--------------------3--8--10--------------------\

VERSE

E:-----------------------------------------------------------\
B:------------------9-------------------------9--------------\
G:----------------------8-------------------------8----------\
D:-----------------------------------------------------------\
A:-------------8--------------------------8------------------\
D:---3--8--10--------------------3--8--10--------------------\

E:-----------------------------------------------------------\
B:------------------9-------------------------9--------------\
G:----------------------8-------------------------8----------\
D:-----------------------------------------------------------\
A:-------------8--------------------------8------------------\
D:---3--8--10--------------------3--8--10--------------------\

E:-----------------------------------------------------------\
B:------------------9-------------------------9--------------\
G:----------------------8-------------------------8----------\
D:-----------------------------------------------------------\
A:-------------8--------------------------8------------------\
D:---3--8--10--------------------3--8--10--------------------\

E:-----------------------------------------------------------\
B:------------------9-------------------------9--------------\
G:----------------------8-------------------------8----------\
D:-----------------------------------------------------------\
A:-------------8--------------------------8------------------\
D:---3--8--10--------------------3--8--10--------------------\

INTERLUDE

E:--------4--6--8--6--4--6p4--------\
B:---4h6----------------------6p4-6-\
G:----------------------------------\
D:----------------------------------\
A:----------------------------------\
D:----------------------------------\

E:-----------------------------------------------------------\
B:--------------------9p6-------------------------9p6--------\
G:-------------------------8p5-------------------------8p5---\
D:-----------------------------------------------------------\
A:-------------8--6------------------------8--6--------------\
D:---3--8--10--------------------3--8--10--------------------\

PRE-CHORUS

E:------------------------\
B:------6------6------6---\
G:------------------------\
D:------------------------\
A:---6------5------4------\
D:------------------------\

CHORUS

E:---------------------------------------\
B:---------------------------------------\
G:---------------------------------------\
D:---1h3--3--3--6-3---1h3--3--3---3--3---\
A:---1h3--3--3--6-3---1h3--3--3---3--3---\
D:---1h3--3--3--6-3---1h3--3--3---3--3---\

E:---------------------------------------\
B:---------------------------------------\
G:---------------------------------------\
D:---1h3--3--3--6-3---1h3--3--3---3--3---\
A:---1h3--3--3--6-3---1h3--3--3---3--3---\
D:---1h3--3--3--6-3---1h3--3--3---3--3---\

E:---------------------------------------\
B:---------------------------------------\
G:---------------------------------------\
D:---1h3--3--3--6-3---1h3--3--3---3--3---\
A:---1h3--3--3--6-3---1h3--3--3---3--3---\
D:---1h3--3--3--6-3---1h3--3--3---3--3---\

E:---------------------------------------\
B:---------------------------------------\
G:---------------------------------------\
D:---1h3--3--3--6-3---1h3--3--3---3--3---\
A:---1h3--3--3--6-3---1h3--3--3---3--3---\
D:---1h3--3--3--6-3---1h3--3--3---3--3---\

INTRO 

E:-----------------------------------------------------------\
B:--------------------9p6-------------------------9p6--------\
G:-------------------------8p5-------------------------8p5---\
D:-----------------------------------------------------------\
A:-------------8--6------------------------8--6--------------\
D:---3--8--10--------------------3--8--10--------------------\

E:-----------------------------------------------------------\
B:--------------------9p6-------------------------9p6--------\
G:-------------------------8p5-------------------------8p5---\
D:-----------------------------------------------------------\
A:-------------8--6------------------------8--6--------------\
D:---3--8--10--------------------3--8--10--------------------\

VERSE II

E:-----------------------------------------------------------\
B:------------------9-------------------------9--------------\
G:----------------------8-------------------------8----------\
D:-----------------------------------------------------------\
A:-------------8--------------------------8------------------\
D:---3--8--10--------------------3--8--10--------------------\

E:-----------------------------------------------------------\
B:------------------9-------------------------9--------------\
G:----------------------8-------------------------8----------\
D:-----------------------------------------------------------\
A:-------------8--------------------------8------------------\
D:---3--8--10--------------------3--8--10--------------------\

E:-----------------------------------------------------------\
B:------------------9-------------------------9--------------\
G:----------------------8-------------------------8----------\
D:-----------------------------------------------------------\
A:-------------8--------------------------8------------------\
D:---3--8--10--------------------3--8--10--------------------\

E:-----------------------------------------------------------\
B:------------------9-------------------------9--------------\
G:----------------------8-------------------------8----------\
D:-----------------------------------------------------------\
A:-------------8--------------------------8------------------\
D:---3--8--10--------------------3--8--10--------------------\

INTERLUDE II
[ Tab from: http://www.guitartabs.cc/tabs/s/shinedown/atmosphere_tab_ver_2.html ]
E:---------------------------------------------------------\
B:---------------------------------------------------------\
G:---3h5--3h5---1h3--3h5--5--1-----------------------------\
D:-------------------------------3--1-----------------------\
A:------------------------------------1--------------------\
D:----------------------------------------6--3p1--3h6--3---\

E:-----------------------------------------------------------\
B:--------------------9p6-------------------------9p6--------\
G:-------------------------8p5-------------------------8p5---\
D:-----------------------------------------------------------\
A:-------------8--6------------------------8--6--------------\
D:---3--8--10--------------------3--8--10--------------------\

PRE-CHORUS

E:------------------------\
B:------6------6------6---\
G:------------------------\
D:------------------------\
A:---6------5------4------\
D:------------------------\

CHORUS

E:---------------------------------------\
B:---------------------------------------\
G:---------------------------------------\
D:---1h3--3--3--6-3---1h3--3--3---3--3---\
A:---1h3--3--3--6-3---1h3--3--3---3--3---\
D:---1h3--3--3--6-3---1h3--3--3---3--3---\

E:---------------------------------------\
B:---------------------------------------\
G:---------------------------------------\
D:---1h3--3--3--6-3---1h3--3--3---3--3---\
A:---1h3--3--3--6-3---1h3--3--3---3--3---\
D:---1h3--3--3--6-3---1h3--3--3---3--3---\

E:---------------------------------------\
B:---------------------------------------\
G:---------------------------------------\
D:---1h3--3--3--6-3---1h3--3--3---3--3---\
A:---1h3--3--3--6-3---1h3--3--3---3--3---\
D:---1h3--3--3--6-3---1h3--3--3---3--3---\

E:---------------------------------------\
B:---------------------------------------\
G:---------------------------------------\
D:---1h3--3--3--6-3---1h3--3--3---3--3---\
A:---1h3--3--3--6-3---1h3--3--3---3--3---\
D:---1h3--3--3--6-3---1h3--3--3---3--3---\

SOLO

E|-----------------------------------------------------------------------|
B|------6----6----6----6-------6----6----6----6--------------------------|
G|-----------------------------------------------------------------------|
D|-----------------------------------------------------------------------|
A|---6----5----4----5-------6----5----4----5-----------------------------|
D|-----------------------------------------------------------------------|

E|-----------------------------------------------------------------------|
B|---6h8---6--4--1--4--4h6--6~~---9--6---6---9--6---6---9--6---6---11--9-|
G|-------------------------------------8----------8----------8-----------|
D|-----------------------------------------------------------------------|
A|-----------------------------------------------------------------------|
D|-----------------------------------------------------------------------|

E|------------------------------------------------------------------16p13|
B|---6---6-6~~~---13p11-9----9-11---13p11--9--11-9--11h13-11-9-----------|
G|-----8------------------10-----------------------------------10-8------|
D|-----------------------------------------------------------------------|
A|-----------------------------------------------------------------------|
D|-----------------------------------------------------------------------|

E|-----------------------------------------------------------------------|
B|---16-13-11h13-16--13--11--13p11---------------------------------------|
G|---------------------------------13p11--13-10--------------------------|
D|-----------------------------------------------------------------------|
A|-----------------------------------------------------------------------|
D|------------------------------------------------6\--1h3--6--8--10--13--|

E|---------------------------------------------4--6--8h11--8--8p6--------|
B|-----6p4------------------4---------------6----------------------------|
G|---5-----5--3--1h3p1--------3h5----------------------------------------|
D|---------------------3-3--------6--6b--3-------------------------------|
A|-----------------------------------------------------------------------|
D|-----------------------------------------------------------------------|

E|---------------------6--4---13---13p11-13p11-13p11-13p11-13p11-13p11---|
B|---9h11p9h11p9--6--9---------------------------------------------------|
G|-----------------------------------------------------------------------|
D|-----------------------------------------------------------------------|
A|-----------------------------------------------------------------------|
D|-----------------------------------------------------------------------|

E|---13p11-13p11-13p11-13p11--8--13--8--16h18p16--13--11--16--18--20--20~|
B|-----------------------------------------------------------------------|
G|-----------------------------------------------------------------------|
D|-----------------------------------------------------------------------|
A|-----------------------------------------------------------------------|
D|-----------------------------------------------------------------------|

PRE-CHORUS

E:------------------------\
B:------6------6------6---\
G:------------------------\
D:------------------------\
A:---6------5------4------\
D:------------------------\

OUTRO CHORUS

E:-----------------------------------------------------------\
B:--------------------9p6-------------------------9p6--------\
G:-------------------------8p5-------------------------8p5---\
D:-----------------------------------------------------------\
A:-------------8--6------------------------8--6--------------\
D:---3--8--10--------------------3--8--10--------------------\

E:-----------------------------------------------------------\
B:--------------------9p6-------------------------9p6--------\
G:-------------------------8p5-------------------------8p5---\
D:-----------------------------------------------------------\
A:-------------8--6------------------------8--6--------------\
D:---3--8--10--------------------3--8--10--------------------\

E:-----------------------------------------------------------\
B:--------------------9p6-------------------------9p6--------\
G:-------------------------8p5-------------------------8p5---\
D:-----------------------------------------------------------\
A:-------------8--6------------------------8--6--------------\
D:---3--8--10--------------------3--8--10--------------------\

E:-----------------------------------------------------------\
B:--------------------9p6-------------------------9p6--------\
G:-------------------------8p5-------------------------8p5---\
D:-----------------------------------------------------------\
A:-------------8--6------------------------8--6--------------\
D:---3--8--10--------------------3--8--10--------------------\

GUITAR LEGEND------
                  ~
h - Hammer-On     ~
p - Pull-Off      ~
                  ~
-------------------

NOTE: Great guitaring once again by Jasin Todd. If he keeps at it like this,
      he'll be a shoe-en for america greatest guitarist ever lived. Anyway,
      the intro is really tricky, as well as the solo. Keep playing it,
      you'll get it down. Well... ...ENJOY!!!

                                              -Asa