Shinedown - 4 Chords & Tabs

 

4 Chords & Tabs

Shinedown Chords & Tabs

Version: 3 Type: Tab 3 ratings
1 star 2 stars 3 stars 4 stars 5 stars
comments

4 Tab

artist:shinedown

song:45

tabbed by: Josh (crazyschism@yahoo.com)



i have to say that this is a really good song, and it is quite simple to play once you get 
the pattern down pat. just listen to the song for the right speed.

intro:

E--0--------2--------3---------------------------------
A----------------------5-----3-----3-----3-----3-------
D-----2-------0----------5-----4-----4-----4-----4-----
G-------0-------2----------------0-----0-----0-----0---
B------------------------------------------------------
e------------------------------------------------------


the verses are sort of like the intro with a few changes. alternate between these two riffs.
[ Tab from: http://www.guitartabs.cc/tabs/s/shinedown/4_tab_ver_3.html ]
E--0--------2--------3---------------------------------------------------
A----------------------5--------------------3-----3-----3----------------
D-----2-------0----------5-------------4p-0----4-----4-----4--------5-4--
G-------0-------2-------------0-h2p-0------------0-----0-----0-----------
B----------------------------------------------------------------3-------
e------------------------------------------------------------------------



E--0--------2--------3-----------------------------------------
A----------------------5-----5----3-----3-----3----------------
D-----2-------0----------5-----5-----4-----4-----4--------5-4--
G-------0-------2----------------------0-----0-----0-----------
B------------------------------------------------------3-------
e--------------------------------------------------------------


the bridge is played with these chords : Am  ,  Em. (strum 12x once then Am again then this series of palm mutes)

   
E---3--3--3--3--3--3---2--2--2--2--2--2--
A---5--5--5--5--5--5---4--4--4--4--4--4--
D---5--5--5--5--5--5---4--4--4--4--4--4--
G----------------------------------------
B----------------------------------------
e----------------------------------------


chorus

E--3-2-0--------------3-2-0------------
A------2-----5----3-------2-----5----3
D------2-----7----5-------2-----7----5
G------------7----5-------------7----5
B-------------------------------------
e-------------------------------------


this is all i have at the moment so please enjoy.
Comments