Shinedown - 4 Chords & Tabs

 

4 Chords & Tabs

Shinedown Chords & Tabs

Version: 2 Type: Tab 5 ratings
1 star 2 stars 3 stars 4 stars 5 stars
comments

4 Tab

This is correct im like 99% sure ive played it over and over again and I think its right

intro:

E--0--------2--------3---------------------------------
A----------------------0-----3-----3-----3-----3-------
D-----2-------0----------0-----0-----0-----0-----0-----
G-------0-------2----------------0-----0-----0-----0---
B------------------------------------------------------
e------------------------------------------------------
x1

verse

E--0--------2--------3-------------------------------------------------
A----------------------0--------------------3-----3-----3--------------
D-----2-------0----------0-------------4p-0----0-----0-----0--------5-0
G-------0-------2-------------0-h2p-0------------0-----0-----0---------
B----------------------------------------------------------------3-----
e----------------------------------------------------------------------
x1

verse part 2
[ Tab from: http://www.guitartabs.cc/tabs/s/shinedown/4_tab_ver_2.html ]
E--0--------2--------3-----------------------------------------
A----------------------0-----0----3-----3-----3----------------
D-----2-------0----------0-----0-----0-----0-----0--------5-4--
G-------0-------2----------------------0-----0-----0-----------
B------------------------------------------------------3-------
e--------------------------------------------------------------
x1

prechorus

E---3--3--3--3--3--3---2--2--2--2--2--2--
A---5--5--5--5--5--5---4--4--4--4--4--4--
D---5--5--5--5--5--5---4--4--4--4--4--4--
G----------------------------------------
B----------------------------------------
e----------------------------------------
x1



chorus

E--3-2-0--------------3-2-0------------
A------2-----5----3-------2-----5----3
D------2-----7----5-------2-----7----5
G------------7----5-------------7----5
B-------------------------------------
e-------------------------------------
x2



intro
verse
prechorus
chorus
verse
a solo I don’t have tabbed
prechorus
chorus
Comments