Shinedown - 45 Chords & Tabs

 

45 Chords & Tabs

Shinedown Chords & Tabs

Version: 6 Type: Tab

45 Tab

   
============================================================================
Title: *45* (4:09)
Artist: Shinedown
Album: Leave A Whisper
============================================================================
Written by Brent Smith and Tony Battaglia
Published by 'Driven By Music' and 'Big Ant Music BMI, ASCAP'
============================================================================
Label: Atlantic Records
Year: 2004
============================================================================
Track: -12-
Song Rating: 10+ ( On a scale from 1-10 )
============================================================================
Transcripted, Tablaturized, Chorded and Formatted by Asa Gaston of Oklahoma
============================================================================
                         -NOTE FROM THE TRANSCRIPTER-
   
    Fabulous song by Shinedown. In my opinion the best song ever produced 
by them (so far). The other versions of this song are on the border line
of being perfect. The only thing missing is the second guitar and they 
could have been formatted a little better (thats just my opinion. I think
a song as good as this one deserves to be perfectley tabbed and perfectly
formatted). Don't get me wrong I'm not a whiny person, and I even catch
myself playing the other versions sometimes just becuase it's easier. But
I formatted this one to satisfy you early players playing along, Tabbed it 
a little differently and tabbed the second guitar in the verses. 
So... ...ENJOY!!!

                                           -Asa
===========================================================================
NOTE CONCERNING EQUIPMENT AND SKILLNESS LEVEL:
If you want play a genuine version of the this song you'lle need, of coarse
a drum set and bassist. But sololy you'lle need a distortion pedal and at
least a 5-watt amplifier(If your amp has an over-drive button on it, just
use that). And, primarilly you'lle need the vioce of Brent Smith ( doubt
you'lle find that anywhere). As far as a skillness level, there is really 
nothing complicating in this song. There are some hammer-ons, pull-offs and 
some palm-muted areas, but nothing too fast or wierd. With that being said
PLAY AWAY YOU SHINE-AZOIDS!!!
===========================================================================
INTRO*
===========================================================================

- - - - - - - - - - - - - - - - - - - - - - - - - - - -  -  - - - - - - - -
Guitar I -{Clean, Distorded}-( E-A-D-G-B-E ) - Jasin Todd
Guitar II -{Lightley Distorded, Distorded}-( E-A-D-G-B-E ) - Percussion
- - - - - - - - - - - - - - - - - - - - - - - - - - - - - - - - - - - - - - 

0:00-

     Em    D     G          Csus2       Cadd11+
E|------------------------------------------------------------------------|
B|------------------------------------------------------------------------|
G|-------0-----2-----0----------0-----0-----0-----0-----------------------|
D|-----2-----0-----0----------0-----0-----4-----4-------------------------|
A|--------------------------3-----3-----3-----3---------------------------|
E|---0-----2-----3--------------------------------------------------------|
 |
 |
E|------------------------------------------------------------------------|
B|------------------------------------------------------------------------|
G|------------------------------------------------------------------------|
D|------------------------------------------------------------------------|
A|------------------------------------------------------------------------|
E|------------------------------------------------------------------------|

===========================================================================
VERSE 1*
===========================================================================
0:10-
           1.   Send a way for a priceless gift.                One not
     
            Em         D         G                           Csus2 
E|------------------------------------------------------------------------|
B|------------------------------------------------------------------------|
G|-------------------0-----2-----------0----------0h2p0-------------0-----|
D|--------------2--------0----------0-------------------4-0-----0---------|
A|-----------------------------------------------------------3------------|
E|----------0----------2---------3----------------------------------------|
 |
 |
E|------------------------------------------------------------------------|
B|------------------------------------------------------------------------|
G|------------------------------------------------------------------------|
D|------------------------------------------------------------------------|
A|------------------------------------------------------------------------|
E|------------------------------------------------------------------------|


           subtle, one not on the list.    Send a way for a perfect world,

                   G7M/C                   Em     D        G  
E|------------------------------------------------------------------------|
B|--------------------------------3---------------------------------------|
G|---------------0----------0--------0----------0-----2--------0----------|
D|------------0--------4----------------4-----2-----0--------0------------|
A|---------3-------3------------------------------------------------------|
E|-----------------------------------------0------2--------3--------------|
 |
 |
E|-----------------------------------------3------5--------3--------------|
B|--------------------------------------------------3---------------------|
G|------------------------------------------------------------------------|
D|------------------------------------------------------------------------|
A|------------------------------------------------------------------------|
E|------------------------------------------------------------------------|


           one not, simply, 'Too Ubsurd'. In these times of doing what 

                                      {Bass Comes In}
        Csus2             G7M/C         Em         D        G   
E|------------------------------------------------------------------------|
B|---------------------------------3--------------------------------------|
G|----0--------0---------0-------0---0-------0-----------2---------0------|
D|--0------0----------0------4--------4---2----------0---------0----------|
A|------3----------3------3-----------------------------------------------|
E|--------------------------------------0----------2--------3-------------|
 |
 |
E|-----12----------------12-------------3----------5--------3-------------|
B|----------------12--------------12-----------------3--------------------|
G|--------12---------12-----12--------------------------------------------|
D|------------------------------------------------------------------------|
A|------------------------------------------------------------------------|
E|------------------------------------------------------------------------|


           your told,              keep this feeling, no one knows.

                                Csus2               G7M/C
E|------------------------------------------------------------------------|
B|-----------------------------------------------------------3------------|
G|-------------------0h2p0---0----------0----------0-----0----------------|
D|-------------------------4-------0------------0-----4-------------------|
A|------------------------------3------------3------3---------------------|
E|------------------------------------------------------------------------|
 |
 |
E|-----------------------------12------------------12---------------------|
B|-------------------------------------------12--------------12-----------|
G|---------------------------------12-----------12---12-------------------|
D|------------------------------------------------------------------------|
A|------------------------------------------------------------------------|
E|------------------------------------------------------------------------|

===========================================================================
PRE-CHORUS*
===========================================================================
0:38-

           What e-ver happened  to the young man's heart?

{Drums Come In} 
     Am               Am6              E5 
E|---5-5-5-5----5-5---5-5-5-5-5-5-----------------------------------------|
B|---5-5-5-5----5-5---7-7-7-7-7-7-----------------------------------------|
G|---5-5-5-5----5-5---5-5-5-5-5-5-----------------------------------------|
D|---7-7-7-7----7-7---7-7-7-7-7-7------2-2-2-2-2-2-2-2-2-2-2-2------------|
A|---7-7-7-7----7-7---7-7-7-7-7-7------2-2-2-2-2-2-2-2-2-2-2-2------------|
E|---5-5-5-5----5-5---5-5-5-5-5-5------0-0-0-0-0-0-0-0-0-0-0-0------------|
 |
 |   Am
E|---5--------------------------------------------------------------------|
B|---5--------------------------------------------------------------------|
G|---5--------------------------------------------------------------------|
D|---7---------------------------------------------2h4h5p4p2-2------------|
A|---7--------------------------------------------------------------------|
E|---5--------------------------------------------------------------------|


           Swallowed by pain    as he slowley fell a part.
                                     {D*}
     Am                 Am6           G5             F#5
E|---5-5-5-5---5-----5--5-5-5-5-5--5--------------------------------------|
B|---5-5-5-5---5-----5-h7-7-7-7-7--7--------------------------------------|
G|---5-5-5-5---5-----5--5-5-5-5-5--5--------------------------------------|
D|---7-7-7-7---7-----7--7-7-7-7-7--7--5-5-5---5-5--5-4-4-4-4--------------|
A|---7-7-7-7---7-----7--7-7-7-7-7--7--5-5-5---5-5--5-4-4-4-4--------------|
E|---5-5-5-5---5-----5--5-5-5-5-5--5--3-3-3---3-3--3-2-2-2-2--------------|
 |                                      PM----------}
 |                                    G5             F#5
E|------------------------------------------------------------------------|
B|------------------------------------------------------------------------|
G|------------------------------------------------------------------------|
D|------------------------------------5--------------4-4-4-4--------------|
A|------------------------------------5--------------4-4-4-4--------------|
E|------------------------------------3--------------2-2-2-2--------------|

===========================================================================
CHORUS*
===========================================================================
0:57-

           And I'm  staring down the barrel of a forty-five (forty-five).

                    E5                           D                        
E|-----------------------------------------------5------------------------|
B|-----------------------------------------------7------------------------|
G|-----------------------------------------------7------------------------|
D|------------------2----------------------------7------------------------|
A|------------------2----------------------------5------------------------|
E|---------3---2----0-----------------------------------------------------|
 |
 |
E|------------------------------------------------------------------------|
B|------------------------------------------------------------------------|
G|------------------------------------------------------------------------|
D|------------------------------------------------------------------------|
A|------------------------------------------------------------------------|
E|------------------------------------------------------------------------|


            Swimming through the ashes of another life (another life).    

            C                                                             
E|----------3-------------------------------------------------------------|
B|----------5-------------------------------------------------------------|
G|----------5-------------------------------------------------------------|
D|----------5-------------------------------------------------------------|
A|----------3-------------------------------------------------------------|
E|----------------------------------------------------------3----2--------|
 |
 |
E|------------------------------------------------------------------------|
B|------------------------------------------------------------------------|
G|------------------------------------------------------------------------|
D|------------------------------------------------------------------------|
A|------------------------------------------------------------------------|
E|------------------------------------------------------------------------|


           No real reason to except the way things have changed. Staring

           E5                  D                                 C
E|-----------------------------5---------------------------------3--------|
B|-----------------------------7---------------------------------5--------|
G|-----------------------------7---------------------------------5--------|
D|---------2-------------------7---------------------------------5--------|
A|---------2-------------------5---------------------------------3--------|
E|---------0--------------------------------------------------------------|
 |
 |                             D                   Dsus4 
E|-----------------------------5----5-5-5-5-5------5-----5----------------|
B|-----------------------------7----7-7-7-7-7h8----8-----8----------------|
G|-----------------------------7----7-7-7-7-7------7-----7----------------|
D|-----------------------------7----7-7-7-7-7------7-----7----------------|
A|-----------------------------5----5-5-5-5-5------5-----5----------------|
E|------------------------------------------------------------------------|


           down the barrel of a forty-five.

                                Am
E|------------------------------5-----------------------------------------|
B|------------------------------5-----------------------------------------|
G|------------------------------5----------{Goes Right to}----------------|
D|------------------------------7------------{PRE-VERSE}------------------|
A|------------------------------7-----------------------------------------|
E|------------------------------5-----------------------------------------|
 |
 |
E|------------------------------------------------------------------------|
B|------------------------------------------------------------------------|
G|------------------------------------------------------------------------|
D|------------------------------------------------------------------------|
A|------------------------------------------------------------------------|
E|------------------------------------------------------------------------|

===========================================================================
PRE-VERSE*
===========================================================================
1:16-
  

  C*
     Em    D     G          Csus2       Cadd11+
E|------------------------------------------------------------------------|
B|------------------------------------------------------------------------|
G|-------0-----2-----0----------0-----0-----0-----0-----------------------|
D|-----2-----0-----0----------0-----0-----4-----4-------------------------|
A|--------------------------3-----3-----3-----3---------------------------|
E|---0-----2-----3--------------------------------------------------------|
 |
 |                       *{Drums come back in}
E|-------------------------12----------12---------------------------------|
B|-------------------------------12----------12---------------------------|
G|----------------------------12---12-----12------------------------------|
D|------------------------------------------------------------------------|
A|------------------------------------------------------------------------|
E|------------------------------------------------------------------------|

===========================================================================
VERSE 2*
===========================================================================
1:25-
          2.   Send  a message to the un  born child,                keep
    
            Em         D               G                           Csus2
E|------------------------------------------------------------------------|
B|------------------------------------------------------------------------|
G|-------------------0---------2------------0----------0h2p0--------------|
D|--------------2--------0----------------0-------------------4-0----0----|
A|-----------------------------------------------------------------3------|
E|----------0----------2---------------3----------------------------------|
 |
 |
E|----------3----------5---------------3---------------------------12-----|
B|-----------------------3------------------------------------------------|
G|--------------------------------------------------------------------12--|
D|------------------------------------------------------------------------|
A|------------------------------------------------------------------------|
E|------------------------------------------------------------------------|

           your eyes open    for a   while.      In a box    high upon the 

                           G7M/C              Em     D     G
E|------------------------------------------------------------------------|
B|-----------------------------------3------------------------------------|
G|--------------0--------0-------0------0-----------0----2---------0------|
D|---------------------0-----4-------------4----2------0-------0----------|
A|-------------------3-----3----------------------------------------------|
E|--------------------------------------------2------4-----5--------------|
 |
 |
E|------------------------12------------------3------5-----3--------------|
B|------------------12---------------12----------------3------------------|
G|---------------------12----12-------------------------------------------|
D|------------------------------------------------------------------------|
A|------------------------------------------------------------------------|
E|------------------------------------------------------------------------|


           shelf,       left for you,       no one else.      There's a

                     Csus2              G7M/C              Em 
E|------------------------------------------------------------------------|
B|-------------------------------------------------3----------------------|
G|-----------------0---------0--------0--------0------0---------------0---|
D|---------------0------0-----------0-------4------------4----2-----------|
A|-------------------3-----------3------3---------------------------------|
E|---------------------------------------------------------0--------------|
 |
 |
E|------------------12-----------------12----------12------3--------------|
B|------------------------------12----------------------------------------|
G|---------------------12-----------12------12----------------------------|
D|------------------------------------------------------------------------|
A|------------------------------------------------------------------------|
E|------------------------------------------------------------------------|


           piece of a puzzle know as: 'Life'.              Wrapped in guilt

           D          G                                Csus4
E|------------------------------------------------------------------------|
B|------------------------------------------------------------------------|
G|---------------2--------------0------------0h2p0---0-------------0------|
D|-----------0-----------0-------------------------4-------0------------0-|
A|-----------------------------------------------------3--------------3---|
E|---------2----------3---------------------------------------------------|
 |
 |
E|---------5----------3-------------------------------12------------------|
B|-----------3--------------------------------------------------------12--|
G|--------------------------------------------------------12------------12|
D|------------------------------------------------------------------------|
A|------------------------------------------------------------------------|
E|------------------------------------------------------------------------|


            , sealed up tight.

           G7M/C
E|------------------------------------------------------------------------|
B|----------------------3-------------------------------------------------|
G|-------0-----------0----------------------------------------------------|
D|------------4-----------------------------------------------------------|
A|---------3--------------------------------------------------------------|
E|------------------------------------------------------------------------|
 |
 |
E|---------12-------------------------------------------------------------|
B|----------------------12------------------------------------------------|
G|------------12----------------------------------------------------------|
D|------------------------------------------------------------------------|
A|------------------------------------------------------------------------|
E|------------------------------------------------------------------------|

===========================================================================
PRE-CHORUS*
===========================================================================
1:54-      

           What e-ver happened  to the young man's heart

     Am               Am6              E5 
E|---5-5-5-5----5-5---5-5-5-5-5-5-----------------------------------------|
B|---5-5-5-5----5-5---7-7-7-7-7-7-----------------------------------------|
G|---5-5-5-5----5-5---5-5-5-5-5-5-----------------------------------------|
D|---7-7-7-7----7-7---7-7-7-7-7-7------2-2-2-2-2-2-2-2-2-2-2-2------------|
A|---7-7-7-7----7-7---7-7-7-7-7-7------2-2-2-2-2-2-2-2-2-2-2-2------------|
E|---5-5-5-5----5-5---5-5-5-5-5-5------0-0-0-0-0-0-0-0-0-0-0-0------------|
 |
 |   Am                                 Em   D      G
E|---5--------------------------------------------------------------------|
B|---5--------------------------------------------------------------------|
G|---5-------------------------------------0-----2------0-----------------|
D|---7-----------------------------------2-----0------0-------------------|
A|---7--------------------------------------------------------------------|
E|---5----------------------------------0----2------3---------------------|

[ Tab from: http://www.guitartabs.cc/tabs/s/shinedown/45_tab_ver_6.html ]
           Swallowed by pain    as he slowley fell a part.     
                                     {D*}
     Am                 Am6           G5             F#5
E|---5-5-5-5---5-----5--5-5-5-5-5--5--------------------------------------|
B|---5-5-5-5---5-----5-h7-7-7-7-7--7--------------------------------------|
G|---5-5-5-5---5-----5--5-5-5-5-5--5--------------------------------------|
D|---7-7-7-7---7-----7--7-7-7-7-7--7--5-5-5---5-5--5-4-4-4-4-4-4-4--------|
A|---7-7-7-7---7-----7--7-7-7-7-7--7--5-5-5---5-5--5-4-4-4-4-4-4-4--------|
E|---5-5-5-5---5-----5--5-5-5-5-5--5--3-3-3---3-3--3-2-2-2-2-2-2-2--------|
 |                                      PM----------}
 |                                    G5             F#5
E|------------------------------------------------------------------------|
B|------------------------------------------------------------------------|
G|------------------------------------------------------------------------|
D|------------------------------------5--------------4-4-4-4-4-4-4--------|
A|------------------------------------5--------------4-4-4-4-4-4-4--------|
E|------------------------------------3--------------2-2-2-2-2-2-2--------|

===========================================================================
CHORUS*
===========================================================================
2:12-

           And I'm  staring down the barrel of a forty-five (forty-five).

                    E5                           D                        
E|-----------------------------------------------5------------------------|
B|-----------------------------------------------7------------------------|
G|-----------------------------------------------7------------------------|
D|------------------2----------------------------7------------------------|
A|------------------2----------------------------5------------------------|
E|---------3---2----0-----------------------------------------------------|
 |
 |
E|------------------------------------------------------------------------|
B|------------------------------------------------------------------------|
G|------------------------------------------------------------------------|
D|------------------------------------------------------------------------|
A|------------------------------------------------------------------------|
E|------------------------------------------------------------------------|


            Swimming through the ashes of another life (another life).    

            C                                                             
E|----------3-------------------------------------------------------------|
B|----------5-------------------------------------------------------------|
G|----------5-------------------------------------------------------------|
D|----------5-------------------------------------------------------------|
A|----------3-------------------------------------------------------------|
E|----------------------------------------------------------3----2--------|
 |
 |
E|------------------------------------------------------------------------|
B|------------------------------------------------------------------------|
G|------------------------------------------------------------------------|
D|------------------------------------------------------------------------|
A|------------------------------------------------------------------------|
E|------------------------------------------------------------------------|


           No real reason to except the way things have changed. Staring

           E5                  D                                 C
E|-----------------------------5---------------------------------3--------|
B|-----------------------------7---------------------------------5--------|
G|-----------------------------7---------------------------------5--------|
D|---------2-------------------7---------------------------------5--------|
A|---------2-------------------5---------------------------------3--------|
E|---------0--------------------------------------------------------------|
 |
 |                             D                   Dsus4 
E|-----------------------------5----5-5-5-5-5------5-----5----------------|
B|-----------------------------7----7-7-7-7-7h8----8-----8----------------|
G|-----------------------------7----7-7-7-7-7------7-----7----------------|
D|-----------------------------7----7-7-7-7-7------7-----7----------------|
A|-----------------------------5----5-5-5-5-5------5-----5----------------|
E|------------------------------------------------------------------------|


           down the barrel of a forty-five.

                                Am
E|------------------------------5-----------------------------------------|
B|------------------------------5-----------------------------------------|
G|------------------------------5-----------------------------------------|
D|------------------------------7-----------------------------------------|
A|------------------------------7-----------------------------------------|
E|------------------------------5-----------------------------------------|
 |
 |
E|------------------------------------------------------------------------|
B|------------------------------------------------------------------------|
G|------------------------------------------------------------------------|
D|------------------------------------------------------------------------|
A|------------------------------------------------------------------------|
E|------------------------------------------------------------------------|


===========================================================================
BRIDGE*
===========================================================================
2:32-

           Every one's pionting their fingers,      always condeming me

     G7sus4            F#7sus4                G7sus4          F#7sus4
E|---3-3-3-------3-----2~~--------------------3-3-3--------3--2~~---------|
B|---3-3-3-------3-----2~~--------------------3-3-3--------3--2~~---------|
G|---5-5-5-------5-----4~~--------------------5-5-5--------5--4~~---------|
D|---3-3-3-------3-----2~~--------------------3-3-3--------3--2~~---------|
A|---3-3-3-------3-----2~~--------------------3-3-3--------3--2~~---------|
E|---3-3-3-------3-----2~~--------------------3-3-3--------3--2~~---------|
 |
 |
E|------------------------------------------------------------------------|
B|------------------------------------------------------------------------|
G|------------------------------------------------------------------------|
D|------------------------------------------------------------------------|
A|------------------------------------------------------------------------|
E|------------------------------------------------------------------3--2~~|
                                                                    PM----}

           Nobody knows what I believe,                   I believe               

     G7sus4       F#7sus4              E5    D     G      G7sus4    D
E|---3-3-3-----3--2~~-------------------------------------3~~-------------|
B|---3-3-3-----3--2~~-------------------------------------3~~-------------|
G|---5-5-5-----5--4~~----------------------------2-----0--5~~-----------2-|
D|---3-3-3-----3--2~~----------------------2---0-----0----3~~-----2---0---|
A|---3-3-3-----3--2~~--------------------2----------------3~~---2---------|
E|---3-3-3-----3--2~~------------------0-----2-----3------3~~-0-----2-----|
 |                                                            E5    
 |
E|------------------------------------------------------------------------|
B|------------------------------------------------------------------------|
G|------------------------------------------------------------------------|
D|------------------------------------------------------------------------|
A|------------------------------------------------------------------------|
E|------------------------------------------------------------------------|



     G7sus4
E|---3-3-3----------------------------------------------------------------|
B|---3-3-3----------------------------------------------------------------|
G|---5-5-5----------------------------------------------------------------|
D|---3-3-3----------------------------------------------------------------|
A|---3-3-3----------------------------------------------------------------|
E|---3-3-3----------------------------------------------------------------|
 |
 |
E|------------------------------------------------------------------------|
B|------------------------------------------------------------------------|
G|------------------------------------------------------------------------|
D|------------------------------------------------------------------------|
A|------------------------------------------------------------------------|
E|------------------------------------------------------------------------|

===========================================================================
CHORUS*
===========================================================================
2:56-

           And I'm  staring down the barrel of a forty-five (forty-five).

                    E5                           D                        
E|-----------------------------------------------5------------------------|
B|-----------------------------------------------7------------------------|
G|-----------------------------------------------7------------------------|
D|------------------2----------------------------7------------------------|
A|------------------2----------------------------5------------------------|
E|---------3---2----0-----------------------------------------------------|
 |
 |
E|------------------------------------------------------------------------|
B|------------------------------------------------------------------------|
G|------------------------------------------------------------------------|
D|------------------------------------------------------------------------|
A|------------------------------------------------------------------------|
E|------------------------------------------------------------------------|


            Swimming through the ashes of another life (another life).    

            C                                                             
E|----------3-------------------------------------------------------------|
B|----------5-------------------------------------------------------------|
G|----------5-------------------------------------------------------------|
D|----------5-------------------------------------------------------------|
A|----------3-------------------------------------------------------------|
E|----------------------------------------------------------3----2--------|
 |
 |
E|------------------------------------------------------------------------|
B|------------------------------------------------------------------------|
G|------------------------------------------------------------------------|
D|------------------------------------------------------------------------|
A|------------------------------------------------------------------------|
E|------------------------------------------------------------------------|


           No real reason to except the way things have changed. Staring

           E5                  D                                 C
E|-----------------------------5---------------------------------3--------|
B|-----------------------------7---------------------------------5--------|
G|-----------------------------7---------------------------------5--------|
D|---------2-------------------7---------------------------------5--------|
A|---------2-------------------5---------------------------------3--------|
E|---------0--------------------------------------------------------------|
 |
 |                             D                   Dsus4 
E|-----------------------------5----5-5-5-5-5------5-----5----------------|
B|-----------------------------7----7-7-7-7-7h8----8-----8----------------|
G|-----------------------------7----7-7-7-7-7------7-----7----------------|
D|-----------------------------7----7-7-7-7-7------7-----7----------------|
A|-----------------------------5----5-5-5-5-5------5-----5----------------|
E|------------------------------------------------------------------------|


           down the barrel of a forty-five.

                                Am
E|------------------------------5-----------------------------------------|
B|------------------------------5-----------------------------------------|
G|------------------------------5-----------------------------------------|
D|------------------------------7-----------------------------------------|
A|------------------------------7-----------------------------------------|
E|------------------------------5-----------------------------------------|
 |
 |
E|------------------------------------------------------------------------|
B|------------------------------------------------------------------------|
G|------------------------------------------------------------------------|
D|------------------------------------------------------------------------|
A|------------------------------------------------------------------------|
E|------------------------------------------------------------------------|

===========================================================================
OUTRO CHORUS*
===========================================================================


           And I'm staring down the barrel of a forty-five (five).

                    E5                           D                        
E|-----------------------------------------------5------------------------|
B|-----------------------------------------------7------------------------|
G|-----------------------------------------------7------------------------|
D|------------------2----------------------------7------------------------|
A|------------------2----------------------------5------------------------|
E|---------3---2----0-----------------------------------------------------|
 |
 |
E|------------------------------------------------------------------------|
B|------------------------------------------------------------------------|
G|------------------------------------------------------------------------|
D|------------------------------------------------------------------------|
A|------------------------------------------------------------------------|
D|------------------------------------------------------------------------|


            And I'm Swimming through the ashes of another life.    

                    C                                                             
E|------------------3-----------------------------------------------------|
B|------------------5-----------------------------------------------------|
G|------------------5-----------------------------------------------------|
D|------------------5-----------------------------------------------------|
A|------------------3-----------------------------------------------------|
E|----------------------------------------------------------3----2--------|
 |
 |
E|------------------------------------------------------------------------|
B|------------------------------------------------------------------------|
G|------------------------------------------------------------------------|
D|------------------------------------------------------------------------|
A|------------------------------------------------------------------------|
E|------------------------------------------------------------------------|


  There is No real reason to except the way things have changed. Staring

           E5                  D                                 C
E|-----------------------------5---------------------------------3--------|
B|-----------------------------7---------------------------------5--------|
G|-----------------------------7---------------------------------5--------|
D|---------2-------------------7---------------------------------5--------|
A|---------2-------------------5---------------------------------3--------|
E|---------0--------------------------------------------------------------|
 |
 |                             D                   Dsus4 
E|-----------------------------5----5-5-5-5-5------5-----5----------------|
B|-----------------------------7----7-7-7-7-7h8----8-----8----------------|
G|-----------------------------7----7-7-7-7-7------7-----7----------------|
D|-----------------------------7----7-7-7-7-7------7-----7----------------|
A|-----------------------------5----5-5-5-5-5------5-----5----------------|
E|------------------------------------------------------------------------|


           down the barrel of a forty-five.                     Forty-five.

                                Am
E|------------------------------5------------------------5----3-----------|
B|------------------------------5------------------------7----5-----------|
G|------------------------------5------------------------7----5-----------|
D|------------------------------7-------------------2----7----5-----------|
A|------------------------------7-------------------2----5----3-----------|
E|------------------------------5------------3--2---0-------------3--2----|
 |
 |
E|------------------------------------------------------------------------|
B|------------------------------------------------------------------------|
G|------------------------------------------------------------------------|
D|------------------------------------------------------------------------|
A|------------------------------------------------------------------------|
E|------------------------------------------------------------------------|


                  Staring down the barrel of a forty-five

            E5    D                            C             Am                    
E|----------------5----------------------------3-------------5------------|
B|----------------7----------------------------5-------------5------------|
G|----------------7----------------------------5-------------5------------|
D|----------2-----7----------------------------5-------------7------------|
A|----------2-----5----------------------------3-------------7------------|
E|----------0------------------------------------------------5------------|
 |
 |
E|------------------------------------------------------------------------|
B|------------------------------------------------------------------------|
G|------------------------------------------------------------------------|
D|------------------------------------------------------------------------|
A|------------------------------------------------------------------------|
E|------------------------------------------------------------------------|

<><><><><><><><><><><><><><><><><><><><><><><><><><><><><><><><><><><><><><>
Lyrics
<><><><><><><><><><><><><><><><><><><><><><><><><><><><><><><><><><><><><><>

Send a way for a priceless gift. One not subtle, one not on the list. Send
a way for a perfect world, one not simply: 'Too Ubsurd'. In these times
of doing what you're told, keep this feeling, no one knows.
           
What ever happened to the young man's heart. Swallowed by pain, as he slowly
fell apart.

And I'm starring down the barrel of a forty-five. Swimming through the 
ashes of another life. No real reason to except the way things have
changed. Starring down the barrel of a forty-five.

Send a message to the unborn child, keep your eyes open for awile. In a
box high upon the shelf, left for you, no one else. There's a piece of 
a puzzle known as life. Wrapped in guilt, seeled up tight.

What ever happened to the young man's heart. Swallowed by pain as he slowly
fell apart.

And I'm starring down the barrel of a forty-five. Swimming through the
ashes of another life. No real reason to except the way things have 
changed. Starring down the barrel of a forty-five.

Everyone's pointing their fingers, always condeming me. No body knows
what I believe, I believe.

And I'm starring down the barrel of a forty-five. Swimming through the
ashes of another life. No real reason to except the way things have
changed. Starring down the barrel of a forty-five.

And I'm starring down the barrel of a forty-five, and I'm swimming
through the ashes of another life. There is no real reason to except
the way things have changed. Starring down the barrel of a forty-five.

Forty-five. Starring down the barrel of a forty-five.

<><><><><><><><><><><><><><><><><><><><><><><><><><><><><><><><><><><><><><>
<><><><><><><><><><><><><><><><><><><><><><><><><><><><><><><><><><><><><><>
<><><><><><><><><><><><><><><><><><><><><><><><><><><><><><><><><><><><><><>

===================
Chord Diagrams    =
===================

     Em*  D*  G*  Csus2* Cadd11+* Am*   Am6*  E5*   G5*   F#5*  D*  C*
E---|---|---|---|-------|-------|--5--|--5--|-----|-----|-----|-5-|-3-|
B---|---|---|---|-------|-------|--5--|--7--|-----|-----|-----|-7-|-5-|
G---|-0-|-2-|-0-|---0---|---0---|--5--|--5--|-----|-----|-----|-7-|-5-|
D---|-2-|-0-|-0-|---0---|---4---|--7--|--7--|--2--|--5--|--4--|-7-|-5-|
A---|-x-|-x-|-x-|---3---|---3---|--7--|--7--|--2--|--5--|--4--|-5-|-3-|
D---|-0-|-2-|-3-|---x---|---x---|--5--|--5--|--0--|--3--|--2--|-x-|-x-|

      G7M/C* G7sus4*  F#7sus4*  Dsus4* 
E---|-------|---3---|----2----|---5---|
B---|---3---|---3---|----2----|---8---|
G---|---0---|---5---|----4----|---7---|
D---|---4---|---3---|----2----|---7---|
A---|---3---|---3---|----2----|---5---|
D---|---x---|---3---|----2----|-------|

==============================     
Guitar Notation Legend       =     
==============================    
                             -     
 h - Hammer On               -     
 p - Pull Off                -                            
 ~ - Vibrato                 -          
 PM - Palm Muted             -
 D* - Distorded              -
 C* - Clean                  -
                             -
==============================

NOTE: Once again. terrifec song. If you get the chance, please rate
      my other tabs by Shinedown:

      All I Ever Wanted (ver.2)
      Atmosphere (ver.3)
      Begin Again
      Beyond the Sun (ver.2)
      Beyond the Sun Guitar Pro
      Burning Bright Intro
      Fake
      Heroes (ver.4)
      Heroes Guitar Pro
      Heroes Power Tab      
      Heroes Chords
      I Dare You (ver.6)
      I Dare You Power Tab
      I Dare You Chords 
      Lady So Divine
      Lady So Divine Guitar Pro
      Left Out (ver.3)
      Save Me (ver.5)
      Save Me Guitar Pro (ver.4)     
      Save Me Chords
      Someday (ver.2)
      Someday Chords
      Trade Yourself In (ver.4)
      Yer Majesty (ver.4)
      Yer Majesty Guitar Pro

      also 45 ( This One )

      I would greatly appreciate it, it would help out my ug score.
      
      
                         Well... ...ENJOY!!!
                         
                         ---  -   -   -  ---  -  - ----     - 
                         --  ---  -- -- -   - -  - -       ---  
                         -  -   - - - -  ---  ---- ----   -   -
                         -Asa ( FamousA )                      -  
                                                   ---- 

-AWESOME SONG!!!!!!!!!!!!!!!!!