Shinedown - 45 Chords & Tabs

 

45 Chords & Tabs

Shinedown Chords & Tabs

Version: 5 Type: Tab 0 ratings
1 star 2 stars 3 stars 4 stars 5 stars
comments

45 Tab

   
Shinedown
45
xxxxxxxxxxxxxxxxxxxxxxxxxxxxxxxxxxxxxxxxxxxxxxxxxxxxxxxxxxxxxxxxxxxxxxxxxxxxxxxxxxxx
INTRO
e|------------------------------------|---------------------------------------------|
B|------------------------------------|----------------------------------------3----|
G|------0----2----0-------0----0-----0|-------0----2----0---0-----0-----0----0---0--|
D|----2----0----0-------0----0-----4--|-----2----0----0---0-----0-----0----4-------4|
A|--------------------3----3-----3----|-----------------------3-----3-----3---------|
E|--0----2----3-----------------------|---0----2----3-------------------------------|
VERSE
e|------------------------------------|-------------*--------------------------------|
B|------------------------------------|-------------*---------------------------3----|
G|------0----2----0-------0----0-----0|-------0----2*----0---0-----0-----0----0---0--|
D|----2----0----0-------0----0-----4--|-----2----0--*--0---0-----0-----0----4-------4|
A|--------------------3----3-----3----|-------------*----------3-----3-----3---------|
E|--0----2----3-----------------------|---0----2----*3-------------------------------|
  send away for a priceless gift........
                     one not subtle, one not on the list..
                                         Send away for a perfect world...
                                                  *One not simply,so absurd..
e|-------------------------------------|
B|-------------------------------------|
G|------0----2----0-------0----0-----0-|
D|----2----0----0-------0----0-----4---|
A|--------------------3----3-----3-----|
E|--0----2----3------------------------|
  In these times of doing what youre told..
                     you keep these feelings no one knows..
Am              Am2                 Em
watever happened to the young man's heart
Am               Am2      W                     e-----------|
swallowed by pain, as he slowly falls apart.... B-----------|
                                                G-----------|
                                                D-----------|
                                                A-----------|
                                                E-3-2-0-----|
CHORUS
Em                     Dsus2        C9
And im staring down the barrel of a 45
 Dsus2                        C9
swimming through the ashes of another life
Em                Dsus2               C9
no real reason to accept the way things have changed
 Dsus2                      C9
staring down the barrel of a 455555......


e|------------------------------------|---------------------------------------------|
B|------------------------------------|----------------------------------------3----|
G|------0----2----0-------0----0-----0|-------0----2----0---0-----0-----0----0---0--|
D|----2----0----0-------0----0-----4--|-----2----0----0---0-----0-----0----4-------4|
A|--------------------3----3-----3----|-----------------------3-----3-----3---------|
E|--0----2----3-----------------------|---0----2----3-------------------------------|
[ Tab from: http://www.guitartabs.cc/tabs/s/shinedown/45_tab_ver_5.html ]
e|------------------------------------|-------------*--------------------------------|
B|------------------------------------|-------------*---------------------------3----|
G|------0----2----0-------0----0-----0|-------0----2*----0---0-----0-----0----0---0--|
D|----2----0----0-------0----0-----4--|-----2----0--*--0---0-----0-----0----4-------4|
A|--------------------3----3-----3----|-------------*----------3-----3-----3---------|
E|--0----2----3-----------------------|---0----2----*3-------------------------------|
 send a message to the unborn child...
                     keep your eyes open for awhile...
                                         in a box high upon a shelf...
                                                 *left for you, no one else..
e|------------------------------------|
B|------------------------------------|
G|------0----2----0-------0----0-----0|
D|----2----0----0-------0----0-----4--|
A|--------------------3----3-----3----|
E|--0----2----3-----------------------|
  there's a piece of a puzzle knows as life..
                     wrapped in guilt, sealed up tight...
Am              Am2                 Em
watever happened to the young man's heart
Am               Am2      W                     e-----------|
swallowed by pain, as he slowly falls apart.... B-----------|
                                                G-----------|
                                                D-----------|
                                                A-----------|
                                                E-3-2-0-----|
CHORUS
Em                     Dsus2        C9
And im staring down the barrel of a 45
 Dsus2                        C9
swimming through the ashes of another life
Em                Dsus2               C9
no real reason to accept the way things have changed
 Dsus2                      C9
staring down the barrel of a 455555......

BRIDGE
Em                    Dsus2
everyone's pointing their fingers
       C9
always comdemning me
Em                   Dsus2
and nobody knows what i believe
 C9                                             e-----------|
I believe.................                      B-----------|
                                                G-----------|
                                                D-----------|
                                                A-----------|
                                                E-3-2-0-----|
CHORUS
Em                     Dsus2        C9
And im staring down the barrel of a 45
 Dsus2                        C9
swimming through the ashes of another life
Em                Dsus2               C9
no real reason to accept the way things have changed
 Dsus2                      C9
staring down the barrel of a 455555......

e|------------------------------------|---------------------------------------------|
B|------------------------------------|----------------------------------------3----|
G|------0----2----0-------0----0-----0|-------0----2----0---0-----0-----0----0---0--|
D|----2----0----0-------0----0-----4--|-----2----0----0---0-----0-----0----4-------4|
A|--------------------3----3-----3----|-----------------------3-----3-----3---------|
E|--0----2----3-----------------------|---0----2----3-------------------------------|

CHORDS

Am     012200
Am2    212200
W      000553
Dsus2  032000
C9     000230
Em     000220
xxxxxxxxxxxxxxxxxxxxxxxxxxxxxxxxxxxxxxxxxxxxxxxxxxxxxxxxxxxxxxxxxxxxxxxxxxxxxxxxxxxxxx
Comments