Shinedown - 45 Chords & Tabs

 

45 Chords & Tabs

Shinedown Chords & Tabs

Version: 4 Type: Tab 0 ratings
1 star 2 stars 3 stars 4 stars 5 stars
comments

45 Tab

Every tab I've found on this site for this song has been wrong, so here's the
right version of this song!  Enjoi!


Intro/ 1st guitar 
|----------------------------------------|
|----------------------------------------|
|----0-----2-----0-----0-----0-----0-----|
|---2-----0-----0-----0-----0-----0------|
|--------------------3-----3-----3-----3-|
|-0-----2-----3--------------------------|

|--------------------------------------------------------|
|---------------------------------------------------3----|
|----0-----2-----0--------------------0-----0-----0--0---|
|---2-----0-----0-----5h7p5\4-4p0---0-----0-----0------0-|
|----------------------------------3-----3-----3---------|
|-0-----2-----3------------------------------------------|


Verse #1/ 1st guitar
|-------------------------------------------------|
|-------------------------------------------3-----|
|-----0-----2-----0-----0-----0-----0-----0--0----|
|---2-----0-----0-----0-----0-----0-----0------0--|
|-------------------------3-----3-----3-----------|
|-0-----2-----3-----------------------------------|

|------------------------------------------------------|
|---------------------------------------------------3--|
|-----0-----2-----0-------------------0-----0-----0----|
|---2-----0-----0-----5h7p5\4-4h5---0-----0-----0------|
|---------------------------------3-----3-----3--------|
|-0-----2-----3----------------------------------------|


Verse #1/ 2nd guitar
|-3-----5-----3-------------------12----7----12-----7--|
|------------------------------------------------------|
|------------------------------------------------------|
|------------------------------------------------------|
|------------------------------------------------------|
|------------------------------------------------------|

|-3-----5-----3-----3-------------12----7----12-----7--|
|------------------------------------------------------|
|------------------------------------------------------|
|------------------------------------------------------|
|------------------------------------------------------|
|------------------------------------------------------|


Pre-chorus #1/ 1st guitar (listen to the song for the correct strumming patterns)
|-0----:------0------:----0----:-----------------------------------------|
|-1----:------0------:----1----:-----------------------------------------|
|-2----:------0------:----2----:-----------------------------------------|
|-2----:------2------:----2----:--5--5--5--5--5--5--4--4--4--4--5--4--2--|
|-0----:------2------:----0----:--5--5--5--5--5--5--4--4--4--4--5--4--2--|
|------:------0------:---------:--3--3--3--3--3--3--2--2--2--2--3--2--0--|


Pre-chorus #1/ 2nd guitar (listen to the song to get the timing)
|--------------|
|--------------|
|--------------|
|-2/4-5-4\2-0--|
|--------------|
|--------------|


Chorus/ 1st guitar (listen to the song for the correct strumming patterns) Repeat
|----:-----:-----:---------|
|----:--3--:-----:---------|
|----:--2--:--5--:---------|
|-2--:--0--:--5--:---5--4--|
|-2--:--0--:--3--:---5--4--|
|-0--:-----:-----:---3--2--|


Chorus/ 2nd guitar (same strumming pattern as guitar #1) Repeat
|----:-----:-----|
|----:-----:-----|
|-9--:--7--:--5--|
|-9--:--7--:--5--|
|-7--:--5--:--3--|
|----:-----:-----|


Verse #2/ 1st guitar
|------------------------------------------|
|-------------------------------------3----|
|-----0-----2-----0-----0-----0-----0--0---|
|---2-----0-----0-----0-----0-----0-----0--|
|-------------------3-----3-----3----------|
|-0-----2-----3----------------------------|

|--------------------------------------------------------|
|---------------------------------------------------3----|
|-----0-----2-----0-------------------0-----0-----0--0---|
|---2-----0-----0-----5h7p5\4-4h0---0-----0-----0-----0--|
|---------------------------------3-----3-----3----------|
|-0-----2-----3------------------------------------------|

|-----------------------------------------------|
|-----------------------------------------3-----|
|----0-----2-----0-----0-----0-----0-----0--0---|
|---2-----0-----0-----0-----0-----0-----0----0--|
|--------------------------3-----3-----3--------|
|-0-----2-----3---------------------------------|

|---------------------------------------------------|
|------------------------------------------------3--|
|----0-----2-----0------------------0-----0-----0---|
|---2-----0-----0-----5h7p5\4-4h5--0-----0-----0----|
|---------------------------------3-----3-----3-----|
|-0-----2-----3-------------------------------------|


Verse #2/ 2nd guitar
|-3-----5-----3------------------12-----7-----12-----19--|
|--------------------------------------------------------|
|--------------------------------------------------------|
|--------------------------------------------------------|
|--------------------------------------------------------|
|--------------------------------------------------------|

|-3-----5-----3------------------12-----7-----12-----7---|
|--------------------------------------------------------|
|--------------------------------------------------------|
|--------------------------------------------------------|
|--------------------------------------------------------|
|--------------------------------------------------------|
[ Tab from: http://www.guitartabs.cc/tabs/s/shinedown/45_tab_ver_4.html ]
|-3-----5-----3------------------12-----7-----12-----7---|
|--------------------------------------------------------|
|--------------------------------------------------------|
|--------------------------------------------------------|
|--------------------------------------------------------|
|--------------------------------------------------------|

|-3-----5-----3------------------12-----7-----12-----7---|
|--------------------------------------------------------|
|--------------------------------------------------------|
|--------------------------------------------------------|
|--------------------------------------------------------|
|--------------------------------------------------------|


Pre-chorus #2/ 1st guitar (listen to the song for the correct strumming patterns)
|-0----:------0------:----0----:--------------------------------------------|
|-1----:------0------:----1----:--------------------------------------------|
|-2----:------0------:----2----:--------------------------------------------|
|-2----:------2------:----2----:--5--5--5--5--5--5--4-4-4-4-4-4-4--5--4--2--|
|-0----:------2------:----0----:--5--5--5--5--5--5--4-4-4-4-4-4-4--5--4--2--|
|------:------0------:---------:--3--3--3--3--3--3--2-2-2-2-2-2-2--3--2--0--|


Pre-chorus #2/ 2nd guitar (listen to the song to get the timing)
|--------------------|
|--------------------|
|--------------------|
|-2---4---5---7---9--|
|--------------------|
|--------------------|


Chorus/ 1st guitar (listen to the song for the correct strumming patterns) 
|----:-----:-----:---------|
|----:--3--:-----:---------|
|----:--2--:--5--:---------|
|-2--:--0--:--5--:---5--4--|
|-2--:--0--:--3--:---5--4--|
|-0--:-----:-----:---3--2--|

|----:-----:-----:-----|
|----:--3--:-----:-----|
|----:--2--:--5--:-----|
|-2--:--0--:--5--:--2--|
|-2--:--0--:--3--:--2--|
|-0--:-----:-----:--0--|


Chorus/ 2nd guitar (same strumming pattern as guitar #1) 
|-----:----:-----|
|-----:----:-----|
|-9--:--7--:--5--|
|-9--:--7--:--5--|
|-7--:--5--:--3--|
|----:-----:-----|

|----:-----:-----:-----|
|----:-----:-----:-----|
|-9--:--7--:--5--:-----|
|-9--:--7--:--5--:--2--|
|-7--:--5--:--3--:--2--|
|----:-----:-----:--0--|


1st & 2nd Guitars (at the same time)
|------------------------------------------------------------|
|------------------------------------------------------------|
|-5-5-5----5--4------5-5-5----5--4------------5-5-5----5--4--|
|-5-5-5----5--4------5-5-5----5--4----5--4----5-5-5----5--4--|
|-3-3-3----3--2------3-3-3----3--2----5--4----3-3-3----3--2--|
|-------------------------------------3--2-------------------|


Verse #3/ 1st Guitar
|------------------------------------------------|
|------------------------------------------------|
|-----0--------2---------0-------------0------2--|
|---2--------0---------0-------------2-------0---|
|------------------------------------------------|
|-0-------2---------3--------------0-------2-----|


Verse #3/ 2nd Guitar
|----:-----:-----:-----:-----:-----:---------:----------|
|----:-----:-----:-----:-----:-----:---------:----------|
|----:-----:-----:--5--:-----:-----:--5-5-5--:----------|
|-2--:--4--:--5--:--5--:--2--:--4--:--5-5-5--:--5----4--|
|-2--:--4--:--5--:--3--:--2--:--4--:--3-3-3--:--5----4--|
|-0--:--2--:--3--:-----:--0--:--2------------:--3----2--|


Chorus/ 1st guitar (listen to the song for the correct strumming patterns) 
|----:-----:-----|
|----:--3--:-----|
|----:--2--:--5--|
|-2--:--0--:--5--|
|-2--:--0--:--3--|
|-0--:-----:-----|

|----:-----:-----:---------|
|----:--3--:-----:---------|
|----:--2--:--5--:---------|
|-2--:--0--:--5--:---5--4--|
|-2--:--0--:--3--:---5--4--|
|-0--:-----:-----:---3--2--|


Chorus/ 2nd guitar (same strumming pattern as guitar #1) Repeat
|----:-----:-----|
|----:-----:-----|
|-9--:--7--:--5--|
|-9--:--7--:--5--|
|-7--:--5--:--3--|
|----:-----:-----|


Final Chorus/ 1st guitar (Same strumming as every chorus) 
|----:-----:-----:---------|
|----:--3--:-----:---------|
|----:--2--:--5--:---------|
|-2--:--0--:--5--:---5--4--|
|-2--:--0--:--3--:---5--4--|
|-0--:-----:-----:---3--2--|

|----:-----:-----:-----:--------|
|----:--3--:-----:-----:--------|
|----:--2--:--5--:-----:--------|
|-2--:--0--:--5--:--2--:--5--4--|
|-2--:--0--:--3--:--2--:--5--4--|
|-0--:-----:-----:--0--:--3--2--|

|----:-----:-----:---------|
|----:--3--:-----:---------|
|----:--2--:--5--:---------|
|-2--:--0--:--5--:---5--4--|
|-2--:--0--:--3--:---5--4--|
|-0--:-----:-----:---3--2--|

|----:-----:-----:-----|
|----:--3--:-----:-----|
|----:--2--:--5--:-----|
|-2--:--0--:--5--:--2--|
|-2--:--0--:--3--:--2--|
|-0--:-----:-----:--0--|


Final Chorus/ 2nd Guitar (listen to the song for the correct strumming patterns)
|----------------------------------------|
|----------------------------------------|
|----------------7----5----7----9----12--|
|-2----4----5----7----5----7----9----12--|
|-2----4----5----5----3----5----7----10--|
|-0----2----3----------------------------|

|----------------------------------|
|----------------------------------|
|----------------7----5----7----2--|
|-2----4----5----7----5----7----2--|
|-2----4----5----5----3----5----0--|
|-0----2----3----------------------|

|----------------------------------------|
|----------------------------------------|
|----------------7----5----7----9----12--|
|-2----4----5----7----5----7----9----12--|
|-2----4----5----5----3----5----7----10--|
|-0----2----3----------------------------|

|----------------------------------|
|----------------------------------|
|----------------7----5----7-------|
|-2----4----5----7----5----7----2--|
|-2----4----5----5----3----5----2--|
|-0----2----3-------------------0--|
End????.
Comments