Shinedown - 45 Chords & Tabs

 

45 Chords & Tabs

Shinedown Chords & Tabs

Version: 3 Type: Tab 0 ratings
1 star 2 stars 3 stars 4 stars 5 stars
comments

45 Tab

   
Song - 45
Artist - Shinedown
Album - Leave A Whisper

Standard Tuning

Intro:
e|-------------------------------------------
B|-----------------------------------3-------
G|-------0----2----0-----0----0----0---0-----
D|-----2----0----0-----2----2----2-------2---
A|-------------------3----3----3-------------
E|---0----2----3-----------------------------

Verse:
e|-----------------------------------------------------
B|---------------------------------------------3-------
G|-------0----2----0-0h2p0---------0----0----0---0-----
D|-----2----0----0---------4-0---2----2----2-------2---
A|-----------------------------3----3----3-------------
E|---0----2----3---------------------------------------

e|-----------------------------------------------
B|---------------------------------------3-------
G|-------0----2----0---0-----0----0----0---0-----
D|-----2----0----0---0-----2----2----2-------2---
A|-----------------------3----3----3-------------
E|---0----2----3---------------------------------

e|-----------------------------------------------------
B|---------------------------------------------3-------
G|-------0----2----0-0h2p0---------0----0----0---0-----
D|-----2----0----0---------4-0---2----2----2-------2---
A|-----------------------------3----3----3-------------
E|---0----2----3---------------------------------------

Prechorus:
e|---0---0---0---0---0---0---------------
B|---1---1---0---0---1---1---------------
G|---2---2---0---0---2---2---------------
D|---2---2---2---2---2---2---5---4---2---
A|---0---0---2---2---0---0---5---4---2---
E|-----------0---0-----------3---2---0---
                           PM.........

Chorus:
e|---------------------------------------
B|---------------------------------------
G|---------7---5---5-------------7---5---
D|-------2---7---5---5-------2---7---5---
A|-------2---5---3---3-------2---5---3---
E|---3-2-0---------------3-2-0-----------

Verse:
e|-------------------------------------------
B|-----------------------------------3-------
G|-------0----2----0-----0----0----0---0-----
D|-----2----0----0-----2----2----2-------2---
A|-------------------3----3----3-------------
E|---0----2----3-----------------------------

e|-----------------------------------------------------
B|---------------------------------------------3-------
G|-------0----2----0-0h2p0---------0----0----0---0-----
D|-----2----0----0---------4-0---2----2----2-------2---
A|-----------------------------3----3----3-------------
E|---0----2----3---------------------------------------
[ Tab from: http://www.guitartabs.cc/tabs/s/shinedown/45_tab_ver_3.html ]
e|-----------------------------------------------
B|---------------------------------------3-------
G|-------0----2----0---0-----0----0----0---0-----
D|-----2----0----0---0-----2----2----2-------2---
A|-----------------------3----3----3-------------
E|---0----2----3---------------------------------

e|----------------------------------------------------
B|--------------------------------------------3-------
G|-------0----2----0-0h2p0--------0----0----0---0-----
D|-----2----0----0--------4-0---2----2----2-------2---
A|----------------------------3----3----3-------------
E|---0----2----3--------------------------------------

Prechorus:
e|---0---0---0---0---0---0---------------
B|---1---1---0---0---1---1---------------
G|---2---2---0---0---2---2---------------
D|---2---2---2---2---2---2---5---4---2---
A|---0---0---2---2---0---0---5---4---2---
E|-----------0---0-----------3---2---0---
                           PM.........

Chorus:
e|-------------------------------------------
B|-------------------------------------------
G|-----------7---5---5-----------7---5---5---
D|-------2---7---5---5-------2---7---5---5---
A|-------2---5---3---3-------2---5---3---3---
E|---3-2-0---------------3-2-0---------------

Bridge:
e|---------------------------------------------
B|---------------------------------------------
G|-----------5-------------5-----7-7-7---5-----
D|---5-5-5---5-2---5-5-5---5-2---7-7-7---5-2---
A|---5-5-5---3-2---5-5-5---3-2---5-5-5---3-2---
E|---3-3-3-----0---3-3-3-----0-------------0---

e|---------------------------------------------
B|---------------------------------------------
G|-----------------------0---------------------
D|-------2----0----0---2------2----0---5-5-5---
A|-----2----0----2---3------2----0-----5-5-5---
E|---0----2----3----------0----2-------3-3-3---

Chorus:
e|------------------------------------------
B|------------------------------------------
G|-----------7---5---5-----------7---5--5---
D|-------2---7---5---5-------2---7---5--5---
A|-------2---5---3---3-------2---5---3--3---
E|---3-2-0-------------------0--------------

e|--------------------------------------------------------
B|--------------------------------------------------------
G|----------------7--5--7--------------------7--5--7------
D|-------2--4--5--7--5--7--2--------2--4--5--7--5--7--7---
A|-------2--4--5--5--3--5--2--------2--4--5--5--3--5--7---
E|---3-2-0--2--3-----------0--2-3-2-0--2--3-----------5---

Outro:
e|--------------------------------------------------------
B|--------------------------------------------------------
G|----------------7--5--7--------------------7--5--7------
D|-------2--4--5--7--5--7--2--------2--4--5--7--5--7--7---
A|-------2--4--5--5--3--5--2--------2--4--5--5--3--5--7---
E|---3-2-0--2--3-----------0--2-3-2-0--2--3-----------5---

| /  slide up
| \  slide down
| h  hammer-on
| p  pull-off
| ~  vibrato
| +  harmonic
| x  Mute note
Comments