Shinedown - 45 Chords & Tabs

 

45 Chords & Tabs

Shinedown Chords & Tabs

Version: 2 Type: Tab 0 ratings
1 star 2 stars 3 stars 4 stars 5 stars
comments

45 Tab

   
----------------------------------------------------------------------------
			     45 - Shinedown
----------------------------------------------------------------------------
Tabbed by:amiincubus	
Email:amiincubus@yahoo.com

Tuning:DADGBE down 1 whole step

	No one has taken the time to tab this song yet so I thought I would
  	help spread the Shinedown word.  Good luck.

e|--------------------------------------------------------------------------
B|--------------------------------------------------------------------------
G|-----2-----4---------------------------9----------------------------------
D|----4-----6-----7---7----6-7--6-7---6-7---7-6-----------------------------
A|---------------7---7----5----5--------------------------------------------
D|--4----/6-----7-------------------0---------------------------------------

e|--------------------------------------------------------------------------
B|--------------------------------------------------------------------------
G|-----2-----4-----------------------------------9--------------------------
D|----4-----6-----7--7h9p7-6-----6-7---6-7---6-7---7-6----------------------
A|---------------7-----------7-------5-----5--------------------------------
D|--4----/6-----7--------------0--------------------------------------------
[ Tab from: http://www.guitartabs.cc/tabs/s/shinedown/45_tab_ver_2.html ]
e|--------------------------------------------------------------------------
B|--------------------------------------------------------------------------
G|---11-----6------11-----9-----8-------------------------------------------
D|---9------4------9------7-----6-------------------------------------------
A|---9------4------9------7-----6-------------------------------------------
D|---9------4------9------7-----6-------------------------------------------

   what ever happened....
e|--------------0----------------------0------------------------------------
B|--------------3----------------------3------------------------------------
G|--9--8--6--4--2----------9--8--6--4--2---11-------------------------------
D|--7--6--4--2--0----------7--6--4--2--0---9--------------------------------
A|--7--6--4--2--0----------7--6--4--2--0---9--------------------------------
D|--7--6--4--2--0----------7--6--4--2--0---9--------------------------------

   and I'm staring down the barrel of a 45....

e|--------------------------------------------------------------------------
B|--------------------------------------------------------------------------
G|--7-7-7--9-8------7-7-7--9-8------7-7-7--9-8------------------------------
D|--0-0-0--7-6------0-0-0--7-6------0-0-0--7-6------------------------------
A|--5-5-5--7-6------5-5-5--7-6------5-5-5--7-6------------------------------
D|--0-0-0--7-6------0-0-0--7-6------0-0-0--7-6------------------------------

   everyone's pointing their fingers....

e|--------------------------------------------------------------------------
B|--------------------------------------------------------------------------
G|--6-8-9-11-----6-8-9-9-9--------------------------------------------------
D|--4-6-7-9------4-6-7-7-7--------------------------------------------------
A|--4-6-7-9------4-6-7-7-7--------------------------------------------------
D|--4-6-7-9------4-6-7-7-7--------------------------------------------------

   what I believe...


| /  slide up
| \  slide down
| h  hammer-on
| p  pull-off
| ~  vibrato
| +  harmonic
| x  Mute note
============================================================================
Comments