Shinedown - 45 Acoustic Chords & Tabs

 

45 Acoustic Chords & Tabs

Shinedown Chords & Tabs

Version: 1 Type: Tab 0 ratings
1 star 2 stars 3 stars 4 stars 5 stars
comments

45 Acoustic Tab

   
-------------------------------------------------------------------------------
			     45(Acoustic) - Shinedown
-------------------------------------------------------------------------------
This is about 98% correct. It's my first tab and I'm pretty sure its correct except for the
strumming rythm and i didn't tab for timing but the notes should be correct. So just listen
to the album to get it exact.You can do that, right? Oh and if the tab looks messed
up just save it as a text file and open it with notepad and it should be right.

Tabbed by:headbanger420
Email:pinkfloydrocker@yahoo.com

Tuning:EADGBe

Intro
e|------------------------------------|---------------------------------------------|
B|------------------------------------|----------------------------------------3----|
G|------0----2----0-------0----0-----0|-------0----2----0---0-----0-----0----0---0--|
D|----2----0----0-------0----0-----4--|-----2----0----0---0-----0-----0----4-------4|
A|--------------------3----3-----3----|-----------------------3-----3-----3---------|
E|--0----2----3-----------------------|---0----2----3-------------------------------|

Verse
 1.Send Away...   				   And send away...
 2.Send a message				   Cause in a box...
e|------------------------------------------------|----------------------------------|
B|-------------------------------------------3----|----------------------------------|
G|-----0----2----0-0h2---------0-----0-----0---0--|-----0----2----0---0-----0----0---|
D|---2----0----0-------4p0---0-----0-----4-------4|---2----0----0---0-----0----0-----|
A|-------------------------3-----3-----3----------|---------------------3----3-------|
E|-0----2----3------------------------------------|-0----2----3----------------------|
	       Cause in these...
	       Theres a...
e-------------|--------------------------------------------|
B-------3-----|--------------------------------------3-----|
G-----0---0---|-----0----2----0-0h2---------0------0---0---|
D---4-------4-|---2----0----0-------4p0---4----4-4-------4-|
A-3-----------|-------------------------3----3-------------|
E-------------|-0----2----3--------------------------------|
[ Tab from: http://www.guitartabs.cc/tabs/s/shinedown/45_acoustic_tab.html ]
Prechours
  So What....			           It's swallowed...
e|-0-0-000---2-2-222----------------------|-0-0-000---2-2-222---------------------|
B|-1-1-111---1-1-111----------------------|-1-1-111---1-1-111---------------------|
G|-2-2-222---2-2-222---0-0-000---0-0-000--|-2-2-222---2-2-222---0-0-000---0-0-000-|
D|-2-2-222---2-2-222---2-2-222---2-2-222--|-2-2-222---2-2-222---0-0-000---0-0-000-|
A|---------------------2-2-222---2-2-222--|---------------------x-x-xxx---x-x-xxx-|
E|---------------------0-0-000---0-0-000--|---------------------3-3-333---3-3-333-|

              Chours
	      And I'm...			          No real...
e------------|-------------------------------------------|-------------------|
B------------|-0-0-000---3-3-333---0-0-000---0-0-000-----|-0-0-000---3-3-333-|
G------------|-0-0-000---2-2-222---0-0-000---0-0-000-----|-0-0-000---2-2-222-|
D-2-22-2-----|-2-2-222---0-0-000---2-2-222---2-2-222-----|-2-2-222---0-0-000-|
A-2-22-2-----|-2-2-222---0-0-000---3-3-333---3-3-333-----|-2-2-222---0-0-000-|
E-2-22-2-3-2-|---------------------------------------3-2-|-0-----------------|

				                         Bridge
         ---------------first time only-----------------| Everyones...
e-----------|-------------------------------------------|-----------------------------------|
B-0-0-000---|-------------------------------------0-00--|-----------------------------------|
G-0-0-000---|------0----2----0----0-----0----0----0-00--|-555---5-4-4---555--5-4-4-----555--|
D-2-2-222---|----2----0----0----0-----0----0----4-2-22--|-555---5-4-4---555--5-4-4-----555--|
A-3-3-333---|-----------------------3----3----3---3-33--|-333---3-2-2---333--3-2-2-----333--|
E-----------|--0----2----3------------------------------|-333---3-2-2---333--3-2-2-3-2-333--|


e-----------|-------------------------------------------|
B-----------|-------------------------------------------|
G-5-4-4-----|----------2----0-5-55------------2--555----|
D-5-4-4-----|----2---0----0---5-55------2---0----555----|
A-3-2-2-----|--2--------------3-33----2----------333----|
E-3-2-2-3-2-|0-----2----3-----3-33--0-----2------333-3-2|

Outro
 And I'm...
e|----------------------------------------------|--------------------------------------------|
B|----------------------------------------------|--------------------------------------------|
G|-9-9-99999-9/11-11-11-11-11/12--12-12-12-12-12|-9-9-99999/11-11-11-11-11/12-12-12-12-12----|
D|-x-x-xxxxx-x/x--x--x--x---x/x---x--x--x--x--x-|-x-x-xxxxx/x---x--x--x--x/x---x--x--x--x----|
A|-7-7-77777-7/9--9--9--9---9/10--10-10-10-10-10|-7-7-77777/9---9--9--9--9/10-10-10-10-10----|
E|-0-0-00000------------------------------------|-0-0-00000-------------------------------3-2|

Intro
Verse
Chours
Verse
Chours
Bridge
Chours
Outrox2

| /  slide up
| \  slide down
| h  hammer-on
| p  pull-off
| ~  vibrato
| +  harmonic
| x  Mute note
===============================================================================
Comments