Shihad - Pacifier Chords & Tabs

 

Shihad Chords & Tabs

Version: 1 Type: Tab 0 ratings
1 star 2 stars 3 stars 4 stars 5 stars
comments

Pacifier Tab

   
Pacifier
S H I H A D
Tabbed By Aaron Bridgeman (rokken@sicness.net)

http://bogans.arecool.net

I saw a tab for this song, but it was all out so I did it myself

It's just two guitar parts so yay.

KEY
. = palm mute dammit!
x = STRRRING MUTE!
[ Tab from: http://www.guitartabs.cc/tabs/s/shihad/pacifier_tab.html ]
INTRO / VERSE / EVERYTHING ELSE
e|---------------|-- after a few --|
B|---------------|----- times -----|
G|-2-0---4-0-2-2-|-----------------|
D|-0-0-0-0-0-0-0-|--5-5--x-xx--5-5-|
A|---------------|--5-5--x-xx--5-5-|
E|---------------|--3-3--x-xx--3-3-|
pm     .

CHORUS
e|-----------|
B|-----------|
G|-2--4------|
D|-2--4--5---|
A|-0--2--5---|
E|-------3---|
Comments