Sheryl Crowe & Kid Rock - Picture Chords & Tabs

 

Picture Chords & Tabs

Sheryl Crowe & Kid Rock Chords & Tabs

Version: 1 Type: Tab 1 rating
1 star 2 stars 3 stars 4 stars 5 stars
comments

Picture Tab

   
Picture
Sheryl Crow & Kid Rock

Intro:
e|-3-3---------3-------|
B|-3---3---3-----3---3-|
G|-0-------------------|
D|-0-------------------|
A|-2-------------------|
E|-3-----3---3-----3---|	

Verse 1

Chorus

Verse 2

Chorus
[ Tab from: http://www.guitartabs.cc/tabs/s/sheryl_crowe_kid_rock/picture_tab.html ]
Solo: 
                                            
  G                                                     C
e|------------------------------------------------------------------------------------
B|-----------------------------------------------------12h13-12------------15---------
G|-------------0-0-11h12-11----------11h12-11-------------------14-12-14b16--16b14----
D|---------0h2--------------14-12-------------14-12-------------------------------(12)
A|-----0-2------------------------14----------------14--------------------------------
E|-3-3--------------------------------------------------------------------------------
   D                      C              G
e|-14h15-14-12-------15-12----------------------------------------------------|
B|-------------15-12----------------------------------------------------------|
G|------------------------14b16-12h14p12--------------------------------------|
D|---------------------------------------12h14p12------------------X--X-------|
A|------------------------------------------------14-12----12-----14-14b15r14-|
E|------------------------------------------------------15----15--------------|

Verse 3
Comments