Sheryl Crow - Wildflower Chords & Tabs

 

Wildflower Chords & Tabs

Sheryl Crow Chords & Tabs

Version: 1 Type: Tab 0 ratings
1 star 2 stars 3 stars 4 stars 5 stars
comments

Wildflower Tab

Artist: Sheryl Crow
Song: Wildflower

Wildflower - Sheryl Crow

Capo  3th Fret 

Intro 
E|---1-----1----5----5----5----5----5----5----|
B|---3-----3----6----6----6----6----6----6----|
G|---2-----2----5---5----4----4----3----3----|
D|---0--0----0----0----0-----0---0-----0---0--|
A|--------------------------------------------|
E|--------------------------------------------|

E|---1-----2----5----5----5----5----5----5----|
B|---3-----3----6----6----6----6----6----6----|
G|---2-----2----5---5----4----4----3----3----|
D|---0--0----0----0----0-----0---0-----0---0--|
A|--------------------------------------------|
E|--------------------------------------------|


(First Verse)        

	Quiet eyes          You have always been   my
E|---1-----1----5----5----5----5----5----5----|
B|---3-----3----6----6----6----6----6----6----|
G|---2-----2----5---5----4----4----3----3----|
D|---0--0----0----0----0-----0---0-----0---0--|
A|--------------------------------------------|
E|--------------------------------------------|

Wildflower          Showing up wherever                                 
E|---1-----2----5----5----5----5----5----5----|
B|---3-----3----6----6----6----6----6----6----|
G|---2-----2----5---5----4----4----3----3----|
D|---0--0----0----0----0-----0---0-----0---0--|
A|--------------------------------------------|
E|--------------------------------------------|

     Beauty's    lost its  way               Your heart must break
E|---------------------------------------------------|
B|--1----1-----3------3----3-----3-------------------|
G|--2----2-----3------3----4-----4------5--4---------|
D|-----3---3---3---3----3--5---5---5----3-----75----|
A|--3----------1-----------5------------5------------|
E|--1----------------------3-------------------------|

E|---2-----2----5----5----5----5----5----5----|
B|---3-----3----6----6----6----6----6----6----|
G|---2-----2----5---5----4----4----3----3----|
D|---0--0----0----0----0-----0---0-----0---0--|
A|--------------------------------------------|
E|--------------------------------------------|


           I was free        Until I heard the song 
E|---1-----1----5----5----5----5----5----5----|
B|---3-----3----6----6----6----6----6----6----|
G|---2-----2----5---5----4----4----3----3----|
D|---0--0----0----0----0-----0---0-----0---0--|
A|--------------------------------------------|
E|--------------------------------------------|

you sang me to me          Pulling me away from
E|---1-----2----5----5----5----5----5----5----|
B|---3-----3----6----6----6----6----6----6----|
G|---2-----2----5---5----4----4----3----3----|
D|---0--0----0----0----0-----0---0-----0---0--|
A|--------------------------------------------|
E|--------------------------------------------|

           Every      thing   I knew   To be with
E|---------------------------------------------------|
B|--1----1-----3------3----3-----3-------------------|
G|--2----2-----3------3----4-----4------5--4---------|
D|-----3---3---3---3----3--5---5---5----3-----75----|
A|--3----------1-----------5------------5------------|
E|--1----------------------3-------------------------|
[ Tab from: http://www.guitartabs.cc/tabs/s/sheryl_crow/wildflower_tab.html ]
    you
E|---2----2---5---5---2------|
B|---3----3---6---6---3------|
G|---2----2---5---4---2------|
D|---0--0---0---0---0-0------|
A|---------------------------|
E|---------------------------|

     And everything I know    just fades away
E|---------------------------------------2-----2-----|
B|----1---1--1--1--3----3----31---3-----3-----3-----|
G|----0---0--------2----2----2-----2-----2-----2-----|
D|----3---2--0-----3--3---3--3--3----3---0--0-----0--|
A|--------------3--2---------1-----------------------|
E|---------------------------------------------------|


  And every time you    go    it hurts me  
E|---------------------------------------|
B|----1---1--1--1--3----3----31---3-----|
G|----0---0--------2----2----2-----2-----|
D|----3---2--0-----3--3---3--3--3----3---|
A|--------------3--2---------1-----------|
E|---------------------------------------|

   so       I don't know why                           but I know we're        
E|--------------------------------------------------------------|
B|--1----1---8-----8-----3-----3----------------------3---------|
G|--2----2---8-----8-----3-----3----3h5p3p0-----------3---------|
D|--3--2---2-8---8---8---5--5----5------------------3--3--------|
A|--3--------6-----------5--------------------0--1---------1--0-|
E|--1--------------------3------------------4-------------------|

   free                        Free to 
E|---------------------------------0---|
B|--3-----3---------------3----23-----|
G|--3-----3---------------3----3-------|
D|--5--5----5----------3----3--2-------|
A|--5-------------0--1---------1-------|
E|--3----------4-----------------------|

   fly
E|---2-----2----5----5----5----5----5----5----|
B|---3-----3----6----6----6----6----6----6----|
G|---2-----2----5---5----4----4----3----3----|
D|---0--0----0----0----0-----0---0-----0---0--|
A|--------------------------------------------|
E|--------------------------------------------|


(Second Verse)

Here we are 
Burning faster than the cursed star 
Falling back down to the Earth 
I love you so it sometimes hurts 

Closer still 
You will find me standing on the hill 
Waiting for you with my arms stretched open wide 
Now, come inside 

And everything I know just fades away 
And every time you go it hurts me so 
I don't know why but I know we're free 
Free to fly 

And everything I know just fades away 
And where the wildflower grows it picks its space 
And that's the way it is when nature plays its lovely hand 
We'll understand everything 

E|---2-----2----5----5----5----5----5----5----3|
B|---3-----3----6----6----6----6----6----6----2|
G|---2-----2----5---5----4----4----3----3----3|
D|---0--0----0----0----0-----0---0-----0---0--0|
A|---------------------------------------------|
E|---------------------------------------------|

                        
Everything, everything
(Resolves on F major)

(Tab by Rockcru)


END

+-----------------------------------------------------------------------+
|This file is the author's own work and represents his interpretation   |
|of the song. You may only use this file for private study, scholarship |
|or research.                                                           |
+-----------------------------------------------------------------------+
Comments