Sheryl Crow - The First Cut Is The Deepest Chords & Tabs

 

The First Cut Is The Deepest Chords & Tabs

Sheryl Crow Chords & Tabs

Version: 1 Type: Tab 0 ratings
1 star 2 stars 3 stars 4 stars 5 stars
comments

The First Cut Is The Deepest Tab

   
This into is very accurate and i havent seen any others thus far
[ Tab from: http://www.guitartabs.cc/tabs/s/sheryl_crow/the_first_cut_is_the_deepest_tab.html ]
e|-2--2-2h3-2-3/5-5---0h2-0---|
B|-3--------------0--------3--|
G|-2--------------0-----------|  x2, and start strumming the chords below
D|-0--------------0-----------|
A|----------------------------|
E|----------------------------|

The rest of the song is just D, A, and G chords...very easy

  D  A  G

|-2--0--3-----|
|-3--2--0-----|
|-2--2--0-----|
|-0--2--0-----|
|----0--2-----|
|-------3-----|


Have fun!
Comments