Sheryl Crow - All I Wanna Do Chords & Tabs

 

All I Wanna Do Chords & Tabs

Sheryl Crow Chords & Tabs

Version: 1 Type: Bass Tab 0 ratings
1 star 2 stars 3 stars 4 stars 5 stars
comments

All I Wanna Do Bass Tab

Sheryl Crow - "All I Wanna Do" - Bass Tab

common time(4/4)
standard tuning(EADG)

VERSE:

|----------------|-------------|---------------|--------------|
|*---------------|-2-----------|-3---3---3---3-|-------------*|
|*-----0-2-5---5-|-----5-2-5-2-|-------3-------|-5---5---5---*|
|--0-------------|-------------|---------------|-------5---5--|
   1 2 & 3 & 4 &   1 2 & 3 & 4   1 2 & 3 & 4 &   1 2 & 3 & 4

PRE-CHORUS:
[ Tab from: http://www.guitartabs.cc/tabs/s/sheryl_crow/all_i_wanna_do_btab.html ]
|---------------|-----------|
|---------------|-----------|
|---------------|-------5-3-|
|-5---5-3-5---3-|-5---5-----|
  1 2 & 3 & 4 &   1 2 & 3 4

CHORUS:
                                               _____
                                              |all except
|-------4-7------|-4-7---4---9-|-------------|--------------|
|*-----7-------7-|-------------|-.-.---------|-.-.---------*|
|*-7-------------|-------------|-3-3---3---3-|-5-5-5---3-5-*|
|----------------|-------------|-----3-------|-------5------|
   1 2 & 3 & 4 &   1 & 2 & 3 4   1 2 3 & 4 &   1 2 3 & 4 &
  _____
 |last
|-4-2-0---|
|-------4-|
|---------|
|---------|
  1 2 3 4

By: Johari Taylor
E-mail: viking@powerup.com.au


Comments